Zacznij systematycznie uczyć się grać na gitarze razem ze stroną Moja nauka - będziesz miał/miała do niej dostęp po zalogowaniu się w serwisie

Poza światem słów - KSU

Opracował -a: chronictown1,
Redaktor: Miłosz,
Pochodzi z: http://www.chords.pl
Data publikacji: 2006-01-20 00:10
 
Moja nauka


Ups, problem :-/
Zaloguj się Mój śpiewnik
Poza światem snów
Melodia 1
-------------------------------------------------------------------
-----------------5-4-------------------------------5-4-------7-5-4-
-5--5-5-7-5-2-2------5--5-5-7-5-2---5--5-5-7-5-2-2-----5-5-5-------
-------------------------------------------------------------------
-------------------------------------------------------------------
-------------------------------------------------------------------
Melodia 2
-------------------------------------------------------------------------------
-------------------------------------------------------------------------------
-------------------------------------------------------------------------------
-------5----------5---------------------------5--------5-------------12-10-9---
-7-7-7---7--7-7-7---7--10-10-10--12-10-7--7-77--7-7-7-7--7--10-10-10-----------
-------------------------------------------------------------------------------
Melodia 3
----------------------------------------------
---12-12-10-10----------------12-12-13-12-----
---------------12-12-12-14-12--------------12-
----------------------------------------------
----------------------------------------------
----------------------------------------------
G A E C (H)
G A E

Dodaj komentarz ...i/lub link do filmiku video

Zaloguj się do serwisu
Ostatnie komentarze
1.
kalipiotrek
2006-11-25 19:05
A, E i H chyba powinny być molowe.
Wszelkie materiały i wypowiedzi zamieszczone na www.chords.pl są własnością ich autorów.