Zacznij systematycznie uczyć się grać na gitarze razem ze stroną Moja nauka - będziesz miał/miała do niej dostęp po zalogowaniu się w serwisie

Za mgłą (taby) - KSU

Opracował -a: tomekogo,
Dodał -a: tomekogo,
Redaktor: Tomek Pietrzkowski,
Pochodzi z: http://www.chords.pl
Data publikacji: 2010-05-10 00:01
 
Moja nauka


Ups, problem :-/
Zaloguj się Mój śpiewnik


E1|--------------------------------------------------------------------------|
H2|---10--9-12-9-----10-----12-----14---15-------12------10---9-12-9---------|
G3|-11--11------10-11--11-13--13-14--14---14-------14--11--11--------11~-----|
D4|--------------------------------------------------------------------------|
A5|--------------------------------------------------------------------------|
E6|--------------------------------------------------------------------------|

E1|--------------------------------------------------------------------------|
H2|---10-----12-----14---15-------12------10---9-12-9------------------------|
G3|-11--11-13--13-14--14---14-------14--11--11--------11~--------------------|
D4|--------------------------------------------------------------------------|
A5|--------------------------------------------------------------------------|
E6|--------------------------------------------------------------------------|

powyższe gramy we wstępie i między zwrotkami
ponadto, we wstępie po powyższym riffie gramy następująco:  (2 razy!)

E1|---------------------------------------------------------9--10-9----------|
H2|-------9-10-9--------10-12-10-9-----9-10-9---------10-12------------------|
G3|-11--11------11-9-11-----------11-11-------11-9--11-----------------------|
D4|--------------------------------------------------------------------------|
A5|--------------------------------------------------------------------------|
E6|--------------------------------------------------------------------------|

we zwrotce gitara gra motyw:
E1|-----0--------0------------------|
H2|-------0--------0----3-2-0-------|
G3|---2--------1--------------2/1---|
D4|-4--------2--------0-------------|
A5|---------------------------------|
E6|---------------------------------|

E1|-----0--------0----------0-------|
H2|-------0--------0----3-2---3p2---|
G3|---2--------1--------------------|
D4|-4--------2--------0-------------|
A5|---------------------------------|
E6|---------------------------------|

i całą tę zwrotkową sekwencję powtarzamy jeszcze raz
Dodał: pksprzystanek, 2012-11-19 21:32
Opracowania video z komentarzy

Dodaj komentarz ...i/lub link do filmiku video

Zaloguj się do serwisu
Ostatnie komentarze
1.
santo11
2015-01-04 23:38
Chwyty do podanego intro (o ile się nie mylę): fis E fis fis D A h fis E fis fis D A h fis E fis fis E D A fis E D A (2x) Chwyty do zwrotek w innych opracowaniach
2.
pksprzystanek
2012-11-19 21:32
Ta najnowsza wersja zwrotka jakoś inaczej leci chyba tak: ------0------0---------------------------------------------0------0-------------------------------- ---------------------------3---3-3---2--0----------------------------------------3---3-3--2--5--3-2 ----2------1-------------------------------2--1----------2------1---------------------------------- --4------2-------0-------------------------------------4-------2-------0--------------------------- --------------------------------------------------------------------------------------------------- --------------------------------------------------------------------------------------------------- to do tej wersji: http://www.youtube.com/watch?v=LYBud4hXJI8
3.
pirat21wieka
2010-08-30 17:26
Siódmy dźwięk - zamiast 10 powinno być 11.
4.
punkzwoodstocku
2010-08-30 11:05
Bardzo dobre opracowanie, thx
Wszelkie materiały i wypowiedzi zamieszczone na www.chords.pl są własnością ich autorów.