Zacznij systematycznie uczyć się grać na gitarze razem ze stroną Moja nauka - będziesz miał/miała do niej dostęp po zalogowaniu się w serwisie

Jabol punk (solo) - KSU

Opracował -a: rodzina123,
Redaktor: Tomek Pietrzkowski,
Data publikacji: 2007-01-19 00:02
 
Moja nauka


Ups, problem :-/
Zaloguj się Mój śpiewnik


E1----------------------------------------------------
H2----------------------------------------------------
G3--12---------------------12-------------------------
D4-----14--12----12--14--------14--12-----------------
A5------------14--------------------------------------
E6----------------------------------------------------

E1----------------------------------------------------
H2----------------------------------------------------
G3--12---------------------12--14--14B~~~~------------
D4-----14--12----12--14-------------------------------
A5------------14--------------------------------------
E6----------------------------------------------------

E1----------------------------------------------------
H2----12------13----15----17----17B~~~~---------------
G3----12----------------------------------------------
D4----------------------------------------------------
A5----------------------------------------------------
E6----------------------------------------------------

E1----------------------------------------------------
H2------------17B----17B----17B----17B----------------
G3----------------------------------------------------
D4----------------------------------------------------
A5----------------------------------------------------
E6----------------------------------------------------

E1--12-H15-p12----------12-(powt.x3)------------------
H2------------H15-12-H15------------------------------
G3----------------------------------------------------
D4----------------------------------------------------
A5----------------------------------------------------
E6----------------------------------------------------

E1--H15-p12-------------------------------------------
H2----------H15-12------------------------------------
G3-----------------14B(14)-p12----12--\---------------
D4-----------------------------H14--------------------
A5----------------------------------------------------
E6----------------------------------------------------

E1----------------------------------------------------
H2----7--(7b--7)-p5----5------------------------------
G3------------------H7---7--\-------------------------
D4----------------------------------------------------
A5----------------------------------------------------
E6----------------------------------------------------

E1----------------------------------------------------
H2----------------------------------------------------
G3----5--4--------------------------------------------
D4----------7--5-\-(4)--------------------------------
A5---------------------H7--5-\-(3)-\-(2)--------------
E6---------------------------------------3~~~~--------

Dodaj komentarz ...i/lub link do filmiku video

Zaloguj się do serwisu
Ostatnie komentarze
1.
Tomek_Z
2009-07-11 12:05
jak masz nagrane to solo to wyśli mi na emajl brotosyl.tomek@interia.pl bardzo bym prosił
2.
rodzina123
2009-06-09 17:54
To jest mała solóweczka , która ułożyłem sam do tego utworu. Moje nagranie tego solo jeden koleś wysłał do samego J. Kidawy ( bez mojej wiedzy zresztą ) , który ponoć wyraził swoją aprobatę ... Pozdro.
3.
jerkteenspirit
2009-06-08 12:07
jesli ktos slyszal kiedys wersje jabol punka z solowka to niech mi przesle bo nie uwierze poki nie zobacze!!!
4.
rodzina123
2008-01-13 19:51
Punk rock jest prosty w swojej konstrukcji muzycznej - to miałem na myśli , pisząc prostacki . Nie chciałem przez to umniejszyć znaczeniu tej muzyki ( choć nie muszę jej wielbić - ale na wielu koncertach zespołów punkowych bywałem ) Więc niepotrzenie się obrażasz ... A mnie nie znasz - więc skąd możesz wiedzieć jaki jestem ? A Ciebie może na przykład nudzić muza mojego idola - Joe Satrianiego - i mnie nic do tego - sprawa indywidualna. Pozdrawiam.
5.
dmariusz
2008-01-13 18:28
rodzina123 jaki ty mądry jesteś...a jak Ci sie nudzi grać prostacki riff przez 3 minuty to wogole nie graj,a prostacki to jestes ty a nie punkrock.Strasznie pewny siebie jestes
6.
Pimpuszek
2007-09-20 21:34
prosiłbym o solo do 1944 z płyty na 15-lecie :)
7.
rodzina123
2007-01-24 20:45
Nie ma za co ... Chyba na żadnej ...nie wiem nawet - bo jakoś specjalnie punk - rocka nie słucham ( zbyt prosty dla mego muzycznego ego ) Ktoś z chords mnie prosił o opracowanie riffu do całego utworu - i solo sam sobie wymyśliłem ... Po czym rozpisałem i nagrałem MP3 ... Wszystko to wysłałem osobie zamawiającej. I tyle ... Ja ( po wielu latach gry ) uważam , ze grając jakąś piosenkę mogę sobie swoje solówki do nich improwizować - bo mam w tym jaką taką wprawę ... A granie prostackeigo riffu przez 2 czy 3 minuty zanudziłoby mnie na śmierć . PS Jak mi doniósł kolega , który Jabol punk zamawiał - ponoć gitarzysta KSU to moje solo MP3 słyszał ( i nic przeciwko niemu nie miał ) ... Pozdrawiam !
8.
Radzioll
2007-01-24 20:12
Ja bardzo przepraszam, ale w ktorej wersji jabol punka, na ktorej plycie jest solo???
Wszelkie materiały i wypowiedzi zamieszczone na www.chords.pl są własnością ich autorów.