Zacznij systematycznie uczyć się grać na gitarze razem ze stroną Moja nauka - będziesz miał/miała do niej dostęp po zalogowaniu się w serwisie

KSU 2008 - Sztyl Od Kilofa - KSU

Opracował -a: zwirskimateusz,
Redaktor: kamilRTS,
Pochodzi z: http://www.chords.pl
Data publikacji: 2008-04-27 17:08
 
Moja nauka


Ups, problem :-/
Zaloguj się Mój śpiewnik



KSU Akustycznie 2008


   Sztyl od kilofa





wejście:
--------------------------------------
--------------------------------------
--------------------------------------
-4-4-7-4-7-4--4-4-7-4-7---------------
-2-2-5-2-5-2--2-2-5-2-7---------------
----------------------5---------------

--------------------------------------
--------------------------------------
--------------------------------------
-4-4-7-4-7-4--9-9-9-7-4---------------
-2-2-5-2-5-2--7-7-7-5-2---------------
-------------------------------------



zwrotka:
--------------------------------------
--------------------------------------
--------------------------------------
-7-7-7-7---------4-4-4-4--------------
-5-5-5-5-7-7-7-7-2-2-2-2-5-5-5-5------
---------5-5-5-5---------3-3-3-3------




Refren:
--------------------------------------------------------------------
--------------------------------------------------------------------
--------------------------------------------------------------------
--7-7-7-7-7-7-7-7-----------------4-4-4-4-4-4-4-4-------------------
--5-5-5-5-5-5-5-5-7-7-7-7-7-7-7-7-2-2-2-2-2-2-2-2-5-5-5-5-5-5-5-5---
------------------5-5-5-5-5-5-5-5-----------------3-3-3-3-3-3-3-3---


zakończenie:
---------------------------------------------------------------------
---------------------------------------------------------------------
---------------------------------------------------------------------
--7-7-7-7-7-7-7-7-----------------4-4-4-4-4-4-4-4------------------9-
--5-5-5-5-5-5-5-5-7-7-7-7-7-7-7-7-2-2-2-2-2-2-2-2-5-5-5-5-5-5-5-5--9-
------------------5-5-5-5-5-5-5-5-----------------3-3-3-3-3-3-3-3--7-





  Mateusz Żwirski   Krosno 2008
informacje lub Pytania:   zwirskimateusz@interia.pl

Dodaj komentarz ...i/lub link do filmiku video

Zaloguj się do serwisu
Ostatnie komentarze
1.
argus92
2008-05-10 10:41
ciekawy riff :) choć jeszcze płyty nie słyszałem...
Wszelkie materiały i wypowiedzi zamieszczone na www.chords.pl są własnością ich autorów.