Zacznij systematycznie uczyć się grać na gitarze razem ze stroną Moja nauka - będziesz miał/miała do niej dostęp po zalogowaniu się w serwisie

Pod Prąd (tab) - KSU

Opracował -a: Indianer93,
Dodał -a: Indianer93,
Redaktor: SEBEK1304,
Pochodzi z: http://www.chords.pl
Data publikacji: 2011-03-06 23:12
 
Moja nauka


Ups, problem :-/
Zaloguj się Mój śpiewnik


Intro

e|---------------------------------------|
h|---------------------------------------|
g|---------------------------------------|
d|----------5--------------------5---7-5-|  x2
a|-7-7-7-7----7-7-7-7-5--7-7-7-7---7-----|
e|---------------------------------------|

Zwrotka

e|---------------------------------------------------------------------------------|
h|---------------------------------------------------------------------------------|
g|-----------------------------------------5-5-5-5-5-5-5-5-5-5---------------------|
d|-7-7-7-7-7-7-7-7-7-7-3-3-3-3-3-3-3-3-3-3-5-5-5-5-5-5-5-5-5-5-5-5-5-5-5-5-5-5-5-5-| x4
a|-7-7-7-7-7-7-7-7-7-7-3-3-3-3-3-3-3-3-3-3-3-3-3-3-3-3-3-3-3-3-5-5-5-5-5-5-5-5-5-5-|
e|-5-5-5-5-5-5-5-5-5-5-1-1-1-1-1-1-1-1-1-1---------------------3-3-3-3-3-3-3-3-3-3-|

Refren

e|---------------------------------|               e|---------------------------|
h|---------------------------------|               h|---------------------------|
g|-7-7-7---------------------5-5-5-|               g|---------------------------|
d|-7-7-7-7-7-7-7-7-3-3-3-3-3-5-5-5-| x4 a po tem   d|-5-5-5--5-5-5-7-7-7--7-7-7-|x2
a|-5-5-5-7-7-7-7-7-3-3-3-3-3-3-3-3-|               a|-5-5-5--5-5-5-7-7-7--7-7-7-|
e|-------5-5-5-5-5-1-1-1-1-1-------|               e|-3-3-3--3-3-3-5-5-5--5-5-5-|

Wystarzcy się wsłuchać jak co idzie, i grać ;)

Dodaj komentarz ...i/lub link do filmiku video

Zaloguj się do serwisu
Ostatnie komentarze
1.
punkzwoodstocku
2011-03-09 13:56
Dobrze jest poza tym refrenem ;] jak kolega wcześniej wspomniał AH.. PzDr!
2.
petlica
2011-03-08 06:44
Końcówka refrenu, zamiast G A - powinno być A H. reszt ok. Pozdr
3.
macwin
2011-03-07 08:33
http://www.youtube.com/watch?v=SldYy12E7aw
Wszelkie materiały i wypowiedzi zamieszczone na www.chords.pl są własnością ich autorów.