Zacznij systematycznie uczyć się grać na gitarze razem ze stroną Moja nauka - będziesz miał/miała do niej dostęp po zalogowaniu się w serwisie

Życie przez rz - KSU

Opracował -a: Seba,
Dodał -a: Seba,
Redaktor: Seba,
Data publikacji: 2014-03-09 15:53
 
Moja nauka


Ups, problem :-/
Zaloguj się Mój śpiewnik


Intro:

E1|----------------------------
H|-----------------------------
G|--6--6p4---------6--6p4------
D|----------7--4-----------7\--
A|-----------------------------
E6|----------------------------

E1|-----------------------------
H|------------------------------
G|--7--7-7--9--7-6-4--4-7-6-----
D|--------------------------7\--
A|------------------------------
E6|-----------------------------

Zwrotka:
fis, D, A, h, A

Refren:
h, D, A, h, G, A

Dodaj komentarz ...i/lub link do filmiku video

Zaloguj się do serwisu
Wszelkie materiały i wypowiedzi zamieszczone na www.chords.pl są własnością ich autorów.