Zacznij systematycznie uczyć się grać na gitarze razem ze stroną Moja nauka - będziesz miał/miała do niej dostęp po zalogowaniu się w serwisie

Jabolowe Ofiary (tab) - KSU

Opracował -a: Indianer93,
Dodał -a: Indianer93,
Redaktor: SEBEK1304,
Pochodzi z: http://www.chords.pl
Data publikacji: 2011-03-07 10:02
 
Moja nauka


Ups, problem :-/
Zaloguj się Mój śpiewnik
Intro:

e|----------------|----------------|
h|----------------|----------------|
g|-6--4--6--4-6-4-|-6--4--6--4-6-4-|
d|-6--4--6--4-6-4-|-6--4--6--4-6-4-|   x2
a|-4--2--4--2-4-2-|-4--2--4--2-4-2-|
e|----------------|----------------|


e|---------------------|---------------------|---------------------|
h|---------------------|---------------------|---------------------|
g|---------------------|-6-6-6-6-6-6-6-6-6-6-|---------------------|  x1
d|-6-6-6-6-6-6-6-6-6-6-|-6-6-6-6-6-6-6-6-6-6-|-6-6-6-6-6-6-6-6-6-6-|
a|-6-6-6-6-6-6-6-6-6-6-|-4-4-4-4-4-4-4-4-4-4-|-6-6-6-6-6-6-6-6-6-6-|
e|-4-4-4-4-4-4-4-4-4-4-|---------------------|-4-4-4-4-4-4-4-4-4-4-|


Zwrotka:

e|---------------------|---------------------|---------------------|
h|---------------------|---------------------|---------------------|
g|---------------------|-6-6-6-6-6-6-6-6-6-6-|---------------------|
d|-6-6-6-6-6-6-6-6-6-6-|-6-6-6-6-6-6-6-6-6-6-|-6-6-6-6-6-6-6-6-6-6-|
a|-6-6-6-6-6-6-6-6-6-6-|-4-4-4-4-4-4-4-4-4-4-|-6-6-6-6-6-6-6-6-6-6-|
e|-4-4-4-4-4-4-4-4-4-4-|---------------------|-4-4-4-4-4-4-4-4-4-4-|

e|---------------------|---------------------|---------------------|
h|---------------------|---------------------|---------------------|
g|---------------------|---------------------|---------------------|             x2
d|-4-4-4-4-4-4-4-4-4-4-|-2-2-2-2-2-2-2-2-2-2-|-4-4-4-4-4-4-4-4-4-4-|
a|-4-4-4-4-4-4-4-4-4-4-|-2-2-2-2-2-2-2-2-2-2-|-4-4-4-4-4-4-4-4-4-4-|
e|-2-2-2-2-2-2-2-2-2-2-|-0-0-0-0-0-0-0-0-0-0-|-2-2-2-2-2-2-2-2-2-2-|

e|---------------------|---------------------|---------------------|
h|---------------------|---------------------|---------------------|
g|---------------------|---------------------|---------------------|
d|-6-6-6-6-6-6-6-6-6-6-|-2-2-2-2-2-2-2-2-2-2-|-4-4-4-4-4-4-4-4-4-4-|
a|-6-6-6-6-6-6-6-6-6-6-|-2-2-2-2-2-2-2-2-2-2-|-4-4-4-4-4-4-4-4-4-4-|
e|-4-4-4-4-4-4-4-4-4-4-|-0-0-0-0-0-0-0-0-0-0-|-2-2-2-2-2-2-2-2-2-2-|

Refren:

e|----------------------|----------------------|
h|----------------------|----------------------|
g|----------------------|-4-4-4-4-4------------|    x4
d|-6-6-6-6-6--2-2-2-2-2-|-4-4-4-4-4--4-4-4-4-4-|
a|-6-6-6-6-6--2-2-2-2-2-|-2-2-2-2-2--4-4-4-4-4-|
e|-4-4-4-4-4--0-0-0-0-0-|------------2-2-2-2-2-|

e|----------------------|----------------------|
h|----------------------|----------------------|    x1
g|-4-4-4-4-4------------|-4-4-4-4-4------------|
d|-4-4-4-4-4--4-4-4-4-4-|-4-4-4-4-4--4-4-4-4-4-|
a|-2-2-2-2-2--4-4-4-4-4-|-2-2-2-2-2--4-4-4-4-4-|
e|------------2-2-2-2-2-|------------2-2-2-2-2-|

e|----------------------|-----------|
h|----------------------|-----------|
g|----------------------|-----------|
d|-4-4-4-4-4--2-2-2-2-2-|-2-2-2-2-2-|
a|-4-4-4-4-4--2-2-2-2-2-|-2-2-2-2-2-|
e|-2-2-2-2-2--0-0-0-0-0-|-0-0-0-0-0-|

e|----------------|----------------|
h|----------------|----------------|
g|-6--4--6--4-6-4-|-6--4--6--4-6-4-|
d|-6--4--6--4-6-4-|-6--4--6--4-6-4-|
a|-4--2--4--2-4-2-|-4--2--4--2-4-2-|
e|----------------|----------------|

Dodaj komentarz ...i/lub link do filmiku video

Zaloguj się do serwisu
Ostatnie komentarze
1.
punkzwoodstocku
2011-03-09 13:54
za wysoko ;] zwr.: ADAGFGAFA ref.: AFCG Ale dobrze że ktoś takie coś jeszcze dodaje, Pozdrawiam!!!
Wszelkie materiały i wypowiedzi zamieszczone na www.chords.pl są własnością ich autorów.