Zacznij systematycznie uczyć się grać na gitarze razem ze stroną Moja nauka - będziesz miał/miała do niej dostęp po zalogowaniu się w serwisie

Po drugiej stronie drzwi (tab) - KSU

Dodał -a: punkzwoodstocku,
Redaktor: SEBEK1304,
Data publikacji: 2010-08-31 12:52
 
Moja nauka


Ups, problem :-/
Zaloguj się Mój śpiewnik
Zwr.:

e|----------------------------------------------------
B|----------------------------------------------------
G|----------------------------------------------------
D|----------------------------------------------------
A|-------10-10-10-10-5-5-5-5--7-7-7-7--3-3-3-3--------
E|-------8--8--8--8--3-3-3-3--5-5-5-5--1-1-1-1--------





Ref.:

e|---------------------------------------------
B|---------------------------------------------
G|---------------------------------------------
D|------5-5-5-5--------------------------------
A|------3-3-3-3--5-5-5-5--3-3--5-5-5-5---------
E|---------------3-3-3-3--1-1--3-3-3-3---------

Dodaj komentarz ...i/lub link do filmiku video

Zaloguj się do serwisu
Ostatnie komentarze
1.
Filip Musiał
2013-03-20 20:25
Uwielbiam!
Wszelkie materiały i wypowiedzi zamieszczone na www.chords.pl są własnością ich autorów.