Zacznij systematycznie uczyć się grać na gitarze razem ze stroną Moja nauka - będziesz miał/miała do niej dostęp po zalogowaniu się w serwisie

Władcy świata - KSU

Dodał -a: macwin,
Redaktor: Tomek Pietrzkowski,
Data publikacji: 2006-07-23 13:29
 
Moja nauka


Ups, problem :-/
Zaloguj się Mój śpiewnik


E---17--15------------17--15-------------17--15--------------15---17
A------------17----------------17-----------------17---17-----------
G-------------------------------------------------------------------
D-------------------------------------------------------------------
A-------------------------------------------------------------------
E-------------------------------------------------------------------



E---17--15------------17--15-------------17--15--------------15--------
A------------17----------------17-----------------17---17--------------
G------------------------------------------------------------------18--
D----------------------------------------------------------------------
A----------------------------------------------------------------------
E----------------------------------------------------------------------

Dodaj komentarz ...i/lub link do filmiku video

Zaloguj się do serwisu
Ostatnie komentarze
1.
Radosław
2008-11-22 09:19
fajnie że to razwiązałeś
2.
dawid19860420
2006-08-02 15:19
a nie pomyliło mi sie troche podobne :P hahahhaah
3.
dawid19860420
2006-08-02 15:14
gówno prawda wcale tak nie jest ściema głuchyś jak pień
Wszelkie materiały i wypowiedzi zamieszczone na www.chords.pl są własnością ich autorów.