Zacznij systematycznie uczyć się grać na gitarze razem ze stroną Moja nauka - będziesz miał/miała do niej dostęp po zalogowaniu się w serwisie

King Kong - KSU

Opracował -a: lukasz_86,
Dodał -a: lukasz_86,
Redaktor: SEBEK1304,
Pochodzi z: http://www.chords.pl
Data publikacji: 2012-07-24 20:23
 
Moja nauka


Ups, problem :-/
Zaloguj się Mój śpiewnik
Główny riff

E-------------------
H-------------------
G-------------------
D-------------5-5-5-
A-3-3-6-6-5-5-3-3-3-
E-1-1-4-4-3-3-------

Podczas zwrotki gdy Siczka śpiewa, grane jest tylko tłumione F5, 
później wchodzi powyższy riff

Zagrywka po refrenach:

E-------------------------------------------------------------------------------------------------
H-------------------------------------------------------------------------------------------------
G-------------------------------------------------------------------------------------------------
D-5-5-5-5-3-5-5-5-5-3-5-5-5-5-3-5-5-5-5-3---------------------------------------------------------
A-3-3-3-3-1-3-3-3-3-1-3-3-3-3-1-3-3-3-3-1-6--6-5--5-6--6-5--5-6--6-5--5-6--6-5-5--3-3-3-3-3-3-3-3-
E-----------------------------------------4--4-3--3-4--4-3--3-4--4-3--3-4--4-3-3--1-1-1-1-1-1-1-1-
Dodał: lukasz_86, 2012-07-24 20:23
Opracowania video z komentarzy

Dodaj komentarz ...i/lub link do filmiku video

Zaloguj się do serwisu
Wszelkie materiały i wypowiedzi zamieszczone na www.chords.pl są własnością ich autorów.