Zacznij systematycznie uczyć się grać na gitarze razem ze stroną Moja nauka - będziesz miał/miała do niej dostęp po zalogowaniu się w serwisie

Pijany Gówniarz (tab) - KSU

Opracował -a: Indianer93,
Dodał -a: Indianer93,
Redaktor: SEBEK1304,
Pochodzi z: http://www.chords.pl
Data publikacji: 2011-03-06 23:11
 
Moja nauka


Ups, problem :-/
Zaloguj się Mój śpiewnik


Intro: x1

e|-------------|-----------|---------|---------|
h|-------------|-----------|---------|---------|
g|-------------|-----------|---------|---------|
d|-6-6-4-6-9-9-|-6-6-4-6-9-|-------9-|-------9-|
a|-4-4-2-4-7-7-|-4-4-2-4-7-|-4-4-2-7-|-4-4-2-7-|
e|-------------|-----------|-2-2-0---|-2-2-0---|

Zwrotka:x4

e|-----------------------------------------|
h|-----------------------------------------|
g|-----------------------------------------|
d|---------------------7-7-7-7-7-----------|
a|-9-9-9-9-9-5-5-5-5-5-5-5-5-5-5-7-7-7-7-7-|
e|-7-7-7-7-7-3-3-3-3-3-----------5-5-5-5-5-|

Refren: x3
e|-----------                    ---------|
h|-----------                    ---------|
g|-----------                    ---------|
d|----------- a po trzecim razie -4-4-4---| cały refren powtórzyć x2
a|-5-5-5-2-2-                    -2-2-2-2-|
e|-3-3-3-0-0-                    -------0-|

Dodaj komentarz ...i/lub link do filmiku video

Zaloguj się do serwisu
Ostatnie komentarze
1.
macwin
2011-03-07 08:33
http://www.youtube.com/watch?v=SldYy12E7aw
Wszelkie materiały i wypowiedzi zamieszczone na www.chords.pl są własnością ich autorów.