Zacznij systematycznie uczyć się grać na gitarze razem ze stroną Moja nauka - będziesz miał/miała do niej dostęp po zalogowaniu się w serwisie

Ostatnia pieśń wolności - KSU

Dodał -a: Mr.PanKrok,
Redaktor: Miłosz,
Pochodzi z: http://akordy.webzdarma.cz/polskie/ksu/ostatnia_piesn_o_w
Data publikacji: 2006-04-20 00:10
 
Moja nauka


Ups, problem :-/
Zaloguj się Mój śpiewnik
]------------]
]------------]
]-------9--6-]
]-4--7--9--6-]intro
]-4--7--7--4-]
]-2--5-------]

refren grasz z tlumieniem
]------------------------------------------------}
]------------------------------------------------}
]-------------------------------------7-7--6-6---}
]-9-9-9-9-----5-5-5-5-----7-7-7-7-----7-7--6-6---}
]-9-9-9-9-----5-5-5-5-----7-7-7-7-----5-5--4-4---}
]-7-7-7-7-----3-3-3-3-----5-5-5-5----------------}

Refren:
    NAd korytem dzis wielki tlok
]------------------------------------]
]------------------------------------]
]---------7-7-7----------------------]
]-9-9-9---7-7-7---7-7-7----9--9-9-9--]
]-9-9-9---5-5-5---7-7-7----9--9-9-9--]
]-7-7-7-----------5-5-5----7--7-7-7--]

Dodaj komentarz ...i/lub link do filmiku video

Zaloguj się do serwisu
Ostatnie komentarze
1.
qarhodron
2012-05-20 19:05
I jeszcze na początku jest takie coś: ]-----------------------------------] ]---10-10-8-7------10-10-8-7-8------] ]-9--------------9-------------11---] ]-----------------------------------] ]-----------------------------------] ]-----------------------------------] x2
2.
qarhodron
2012-05-20 18:57
@edit miało być tak: ]-------------] ]-------------] ]-------------] ]-2--7--12--9-] ]-2--7--12--9-] ]-0--5--10--7-]
3.
qarhodron
2012-05-20 18:54
Intro leci tak: ]-------------] ]-------------] ]-------------] ]-2--7--12--9-] ]-0--7--12--9-] ]-0--5--10--7-]
4.
argus92
2008-04-15 22:35
ktoś zna solo ?
5.
NUMB
2006-08-16 15:53
Nie słyszałem tej pieśni ;) w wykonaniu KSU, ale gra się przyjemnie. Ładny riff.
Wszelkie materiały i wypowiedzi zamieszczone na www.chords.pl są własnością ich autorów.