Zacznij systematycznie uczyć się grać na gitarze razem ze stroną Moja nauka - będziesz miał/miała do niej dostęp po zalogowaniu się w serwisie

Dno - KSU

Opracował -a: hofmann,
Dodał -a: hofmann,
Redaktor: Seba,
Pochodzi z: http://www.chords.pl/
Data publikacji: 2016-01-20 10:18
 
Moja nauka


Ups, problem :-/
Zaloguj się Mój śpiewnik


KSU - Dno

Riff1
E|---------------------|
B|---------------------|
G|--5---5---------2----|
D|--5---5--2---2--2----|
A|--3---3--2---2--0----|
E|---------0---0-------|

Riff2
E|---------------------------------|
B|---------------------------------|
G|--2------2------2----2-----------|
D|--2------2------2----2-----------|
A|--0--0-0-0--0-0-0--0-0--0-0-0----|
E|---------------------------------|

Riff3
E|-----------------------------|
B|-----------------------------|
G|--2------2------2----2--2----|
D|--2------2------2----2--2----|
A|--0--0-0-0--0-0-0--0-0--0----|
E|-----------------------------|

Riff4
E|---------------------|
B|---------------------|
G|-------2--2----------|
D|-5--5--2--2--5--5----|
A|-5--5--0--0--5--5----|
E|-3--3--------3--3----|

Riff5
E|-----------------|
B|-----------------|
G|-5---5-----------|
D|-5---5--2---2----|
A|-3---3--2---2----|
E|--------0---0----|
Dodał: hofmann, 2016-01-20 10:27
Opracowania video z komentarzy

Dodaj komentarz ...i/lub link do filmiku video

Zaloguj się do serwisu
Wszelkie materiały i wypowiedzi zamieszczone na www.chords.pl są własnością ich autorów.