Zacznij systematycznie uczyć się grać na gitarze razem ze stroną Moja nauka - będziesz miał/miała do niej dostęp po zalogowaniu się w serwisie

Kto Cię obroni Polsko (tab) - KSU

Opracował -a: Byku551,
Dodał -a: Byku551,
Redaktor: SEBEK1304,
Pochodzi z: http://www.chords.pl
Data publikacji: 2012-01-30 18:01
 
Moja nauka


Ups, problem :-/
Zaloguj się Mój śpiewnik
Intro:
E------------
H------------
G------------
D---5-5-9-7-5
A-7-3-3-7-5-3
E-5----------

Zwrotka:

E----------------------
H----------------------
G----------------------
D-------------555------
A-777-333-555-333------
E-555-111-333----------

Refren:

E-------------------------------------------
H-------------------------------------------
G-------------------------------------------
D-----555---------------555-777-999---------
A-777-333-555-777-5-333-333-555-777---------
E-555-----333-555-3-111---------------------
Dodał: Byku551, 2012-01-30 18:01
Opracowania video z komentarzy

Dodaj komentarz ...i/lub link do filmiku video

Zaloguj się do serwisu
Wszelkie materiały i wypowiedzi zamieszczone na www.chords.pl są własnością ich autorów.