Zacznij systematycznie uczyć się grać na gitarze razem ze stroną Moja nauka - będziesz miał/miała do niej dostęp po zalogowaniu się w serwisie

Dobre rady, mądre zdania - KSU

Opracował -a: Seba,
Dodał -a: Seba,
Redaktor: Seba,
Data publikacji: 2013-06-03 23:43
 
Moja nauka


Ups, problem :-/
Zaloguj się Mój śpiewnik


Verse:

E1|----------------------------------------------------------------
H|-----------------------------------------------------------------
G|-----------------------------------------------------------------
D|--2-2-2-2---------2-2-2-2-5-5-5-5-2-2-2-2------------------------
A|--0-0-0-0-5-5-5-5-0-0-0-0-3-3-3-3-0-0-0-0-5-5-5-3-3-3-3-5-5-5-5--
E6|---------3-3-3-3-------------------------3-3-3-1-1-1-1-3-3-3-3--

Chorus:

E1|-------------
H|--------------
G|--------------
D|--2-----7-----
A|--0--2--5--2--
E6|----0-----0--

Dodaj komentarz ...i/lub link do filmiku video

Zaloguj się do serwisu
Ostatnie komentarze
1.
Krystian Działowy
2014-12-21 02:35
Ma ktoś intro?
Wszelkie materiały i wypowiedzi zamieszczone na www.chords.pl są własnością ich autorów.