Zacznij systematycznie uczyć się grać na gitarze razem ze stroną Moja nauka - będziesz miał/miała do niej dostęp po zalogowaniu się w serwisie

Moje Stąd (tab) - KSU

Opracował -a: pksprzystanek,
Dodał -a: pksprzystanek,
Redaktor: Seba,
Pochodzi z: http://www.chords.pl/
Data publikacji: 2015-04-01 09:46
 
Moja nauka


Ups, problem :-/
Zaloguj się Mój śpiewnik
Intro i kawałek zwrotki x4

[tab]1|------------------------------------------------------------------------
     2|------------------------------------------------------------------------
     3|------------------------------------------------------------------------
     4|------------------------------------------------------------------------
     5|------------------------------------------------------------------------
     6|----0--0-0---3--0-0-0---3--0-0--3-5----0--0-0---3--0-0-0----3--5--0-----[/tab]

Druga część zwrotki i następna zwrotka


[tab]1|---------------------------------------------------------------------------------------
     2|---------------------------------------------------------------------------------------
     3|---------------------------------------------------------------------------------------
     4|----4---4x-4x-4x-4x--4-----------------------------------------------------------------
     5|----2---2x-2x-2x-2x--2---4---4x-4x-4x-4x--4---7---7x-7x-7x-7x--7---2---2x-2x-2x-2x--2--
     6|-------------------------2---2x-2x-2x-2x--2---5---5x-5x-5x-5x--5---0---0x-0x-0x-0x--0--[/tab]

Refren


[tab]1|---------------------------------------------------------------------------------------
     2|---------------------------------------------------------------------------------------
     3|---------------------------------------------------------------------------------------
     4|-------------9-9x-9---9------------------------------9-9x-9---9------------------------
     5|----9-9-9-9--7-7x-7---7-7-7-7-7---9-9--9----9-9-9-9--7-7x-7---7-7-7-7-7---4-4-4-4------
     6|----7-7-7-7-------------5-5-5-5---7-7--7----7-7-7-7-------------5-5-5-5---2-2-2-2------[/tab]

Przejście


[tab]1|---------------------------------------------------------------------------------------
     2|---------------------------------------------------------------------------------------
     3|----4-4x-4--6--7-7x-7--11--9--7-6-7-4---12-12x-12--12--11-11x-11-11-9--12-11-----------
     4|---------------------------------------------------------------------------------------
     5|----2-2x-2--4--5-5x-5--9---7--5-4-5-2---10-10x-10--10--9--9x--9--9--7--10--9-----------
     6|---------------------------------------------------------------------------------------[/tab]


Pomiędzy refrenami gramy po jednym wydłużonym chwycie z refrenu


Kolejne przejście


[tab]1|------------------------------------------------------------------------
     2|------------------------------------------------------------------------
     3|------------------------------------------------------------------------
     4|----4x-4x-4-7-4---4x-4x-4-7-4----4x-4x-4-7-4---7-9-----------------------
     5|----2x-2x-2-5-2---2x-2x-2-5-2----2x-2x-2-5-2---5-7--7--------------------
     6|----------------------------------------------------5--------------------[/tab]
Dodał: pksprzystanek, 2015-04-01 09:49
Opracowania video z komentarzy

Dodaj komentarz ...i/lub link do filmiku video

Zaloguj się do serwisu
Wszelkie materiały i wypowiedzi zamieszczone na www.chords.pl są własnością ich autorów.