Zacznij systematycznie uczyć się grać na gitarze razem ze stroną Moja nauka - będziesz miał/miała do niej dostęp po zalogowaniu się w serwisie

Po drugiej stronie drzwi (solo) - KSU

Opracował -a: panindyk,
Dodał -a: panindyk,
Redaktor: Tomek Pietrzkowski,
Pochodzi z: http://www.chords.pl
Data publikacji: 2009-10-18 14:57
 
Moja nauka


Ups, problem :-/
Zaloguj się Mój śpiewnik
zwrotka: H Fis gis E

refren:  H Fis gis E


SOLO


E-/11-9-9-12-12-11-11-9-9-7-7-6-6-7-4-6---7/11-11-9-9-14-12-------
H---------------------------------------7-------------------------
G-----------------------------------------------------------------
D-----------------------------------------------------------------
A-----------------------------------------------------------------
E-----------------------------------------------------------------


E-11/12\11-9-11-9-7-6----------14|-11-12/14-------11-12/14/16\14--
H---------------------7-7-9-12---|----------12-12-----------------
G--------------------------------|--------------------------------
D--------------------------------|--------------------------------
A--------------------------------|--------------------------------
E--------------------------------|--------------------------------


E-12-11-12/14------11-----11-----11---------------------|
H-------------11-12--11-12--11-12--11-12~-7-9-----------|
G--------------------------------------------7-9--------|
D-----------------------------------------------7-9-----|
A--------------------------------------------------7-9--|
E-------------------------------------------------------|


Drugie moje solo układane ze słuchu zakonczenie napewno nie jest dobre
ale jak ktos poprawi bedzie ok.Jak to gram zobaczysz na stronie:
http://www.youtube.com/watch?v=pRcbKqr8uUI
Pozdrawiam.
Dodał: t0m3k, 2012-08-17 10:36
Opracowania video z komentarzy

Dodaj komentarz ...i/lub link do filmiku video

Zaloguj się do serwisu
Ostatnie komentarze
1.
danioto
2009-10-18 19:42
Całkiem przyjemnie to wychodzi, tylko chyba trochę błędów narobiłeś przy pisaniu tabulatury, bo grasz inaczej a jest napisane inaczej :P ;) Pozdrawiam!
Wszelkie materiały i wypowiedzi zamieszczone na www.chords.pl są własnością ich autorów.