Zacznij systematycznie uczyć się grać na gitarze razem ze stroną Moja nauka - będziesz miał/miała do niej dostęp po zalogowaniu się w serwisie

Nad trupem Jugosławii - KSU

Opracował -a: lukasz_86,
Dodał -a: lukasz_86,
Redaktor: SEBEK1304,
Pochodzi z: http://www.chords.pl
Data publikacji: 2012-08-01 08:17
 
Moja nauka


Ups, problem :-/
Zaloguj się Mój śpiewnik


Intro

E--------------------------------------------
H--------------------------------------------
G--------------------------------------------
D--------------9-9-14-13-------------9-9-8---               x2
A--11-11-11-11-7-7-12-11-11-11-11-11-7-7-6-9-
E--9--9--9--9------------9--9--9--9--------7-


Zwrotka (podaje tylko akordy bo bicie jest dość szybkie)


  Cis5   E5   Fis5   A5   Gis5   E5
E-----|-----|-----|-----|-----|-----|
H-----|-----|-----|-----|-----|-----|
G-----|-----|-----|-----|-----|-----|
D-----|--9--|--11-|--14-|--13-|-----|
A--11-|--7--|--9--|--12-|--11-|--14-|
E--9--|-----|-----|-----|-----|--12-|


Refren


  Cis5   A5    H5
E-----|-----|-----|-----|-----|
H-----|-----|-----|-----|-----|
G-----|-----|-----|-----|-----|
D-----|-----|-----|-----|-----|
A--11-|--7--|--9--|--7--|--9--|
E--9--|--5--|--7--|--5--|--7--|
Dodał: lukasz_86, 2012-08-01 08:17
Opracowania video z komentarzy

Dodaj komentarz ...i/lub link do filmiku video

Zaloguj się do serwisu
Wszelkie materiały i wypowiedzi zamieszczone na www.chords.pl są własnością ich autorów.