Zacznij systematycznie uczyć się grać na gitarze razem ze stroną Moja nauka - będziesz miał/miała do niej dostęp po zalogowaniu się w serwisie

Igła i mak - KSU

Opracował -a: chronictown1,
Redaktor: Miłosz,
Pochodzi z: http://www.chords.pl
Data publikacji: 2006-01-29 00:10
 
Moja nauka


Ups, problem :-/
Zaloguj się Mój śpiewnik


Igła i mak

Intro
A D G

melodia 1
-----------------------------
-----------------------------
----------------------9-7-5--
--7-------5~~-7--------------
-----7-9--------7-9----------
-----------------------------

melodia 2
----------------------------------
----------------------------------
-9-9-7-5-7-7-7-5-7-5--9-9-7-5-7~~-
----------------------------------
----------------------------------
----------------------------------

melodia 3
--------------------------------------------------
-17-17-15-13-15-15-15-13-15-13--17-17-15-13-15~~~-
--------------------------------------------------
--------------------------------------------------
--------------------------------------------------
--------------------------------------------------

Zwrotka

A D G

przerywnik
E

Refren
H A E

Dodaj komentarz ...i/lub link do filmiku video

Zaloguj się do serwisu
Wszelkie materiały i wypowiedzi zamieszczone na www.chords.pl są własnością ich autorów.