Zacznij systematycznie uczyć się grać na gitarze razem ze stroną Moja nauka - będziesz miał/miała do niej dostęp po zalogowaniu się w serwisie

Nie miej złudzeń - KSU

Opracował -a: chronictown1,
Redaktor: Miłosz,
Data publikacji: 2005-12-29 00:10
 
Moja nauka


Ups, problem :-/
Zaloguj się Mój śpiewnik


Nie miej złudzeń

Melodia przed zwrotka:
-------------------------------------------------------
---------------------1-3-1-----------------------------
--4-5-4-----------2--------5--------4-5-4--------------
--------5--2--2-2---------------------------5-2-5-4-4~~
-------------------------------------------------------
-------------------------------------------------------


zw 
H D E A

ref 
A E D E

solo
--------------------------------------------
--14-14-14--17-16-14--------------15-14-----
-----------------------16--14-14---------16-
--------------------------------------------
--------------------------------------------
--------------------------------------------

Dodaj komentarz ...i/lub link do filmiku video

Zaloguj się do serwisu
Ostatnie komentarze
1.
kalipiotrek
2006-11-21 20:45
H oraz E jest molowe.
2.
chronictown1
2006-01-01 15:53
W zwrotce zamiast D jest G wiec calosc H G E A
Wszelkie materiały i wypowiedzi zamieszczone na www.chords.pl są własnością ich autorów.