Zacznij systematycznie uczyć się grać na gitarze razem ze stroną Moja nauka - będziesz miał/miała do niej dostęp po zalogowaniu się w serwisie

Wino za karę - KSU

Opracował -a: jerkteenspirit,
Redaktor: Tomek Pietrzkowski,
Pochodzi z: http://www.chords.pl
Data publikacji: 2008-05-14 00:01
 
Moja nauka


Ups, problem :-/
Zaloguj się Mój śpiewnik
intro: aa cc dd dedc
zwrotka: a f g c(h)
refren: a c g a

oczywiście to PUNK więc nie uzywamy tu chwytów moll'owych ani dur'owych, więc 
(jakby ktoś nie wiedział) to wygląda tak:
intro:
E--------------------------
H--------------------------
G--------------------------
D------5-5--7-7--7-9-7-5---
A-7-7--3-3--5-5--5-7-5-3---
E-5-5----------------------

zwrotka:
E-----------------------------------------------------------------------
H-----------------------------------------------------------------------
G-------------------------------------------------------5---------------
D-7--------7--------3--------3--------5--------5--------5---------5-5-4-
A-7--------7--------3--------3--------5--------5--------3-333333--3-3-2-
E-5-555555-5-555555-1-111111-1-111111-3-333333-3-333333-----------------

refren:
E---------------------------------
H---------------------------------
G---------------------------------
D---------5-5-5-5-----------------
A-7-7-7-7-3-3-3-3-5-5-5-5-7-7-7-7-
E-5-5-5-5---------3-3-3-3-5-5-5-5-

Dodaj komentarz ...i/lub link do filmiku video

Zaloguj się do serwisu
Ostatnie komentarze
1.
jerkteenspirit
2008-10-28 12:00
w refrenie jest ACGA DCGA
2.
pirat21wieka
2008-06-24 14:58
Słyszałeś o czymś takim jak "ironia"?
3.
kamilRTS
2008-06-23 11:44
To sobie pograj inne kawałki z tego albumu ...palce Ci popuchną od grania akordów...
4.
pirat21wieka
2008-05-16 21:52
True pankofffcy nie kalają palców łapaniem durów i molli. Oczywiście, szanujemy ich...
Wszelkie materiały i wypowiedzi zamieszczone na www.chords.pl są własnością ich autorów.