Zacznij systematycznie uczyć się grać na gitarze razem ze stroną Moja nauka - będziesz miał/miała do niej dostęp po zalogowaniu się w serwisie

NieRaj - Hunter

Opracował -a: al4n3k,
Dodał -a: al4n3k,
Redaktor: Tomek Pietrzkowski,
Pochodzi z: http://www.chords.pl/
Data publikacji: 2010-01-30 12:28
 
Moja nauka


Ups, problem :-/
Zaloguj się Mój śpiewnik
to samo jest tutaj, tylko, że moje jest w normalnym stroju, czyli E H G D A E  :)


Początek:
---------------------------------
---------------------------------
---------------------------------
-11--10--3----11--10--3--------9--
-11--10--3----11--10--3--------9--


-------------------------------
-------------------------------
-------------------------------
-------------------------------
-11--10--3----5-6-3--5-6-3--4--
-11--10--3----5-6-3--5-6-3--4--


Zwrotka:

---------------------------------------------------------------
---------------------------------------------------------------
---------------------------------------------------------------
---------------------------------------------------------------
-3-3--3-3--3-3----3-3--3-3--3-3----3-3--3-3--3-3---------------
-3-3--3-3--3-3----3-3--3-3--3-3----3-3--3-3--3-3---------------

---------------------------------------------------------------
---------------------------------------------------------------
---------------------------------------------------------------
---------------------------------------------------------------
-3-3--3-3--3-3--3-3----3-3--3-3--3-3--3-3----3-3--3-3--3-3--3-3
-3-3--3-3--3-3--3-3----3-3--3-3--3-3--3-3----3-3--3-3--3-3--3-3



Refren 1:
------------------------------------------------------------------
------------------------------------------------------------------
------------------------------------------------------------------
------------------------------------------------------------------
3----3--5--6--3-----3----5--6--8----11--10--8--6--5--6--3-3--3-3--
3----3--5--6--3-----3----5--6--8----11--10--8--6--5--6--3-3--3-3--

3 Zwrotka :
Początek pusty, miejscami:
---------------------------------------------------------------
---------------------------------------------------------------
---------------------------------------------------------------
---------------------------------------------------------------
3-3--3-3--3-3--3-3-----3-3--3-3--3-3--3-3----------------------
3-3--3-3--3-3--3-3-----3-3--3-3--3-3--3-3----------------------

Pod koniec 3 zwrotki :
---------------------------------------------------------------
---------------------------------------------------------------
---------------------------------------------------------------
---------------------------------------------------------------
--3-5-6--3-5-6--3-5-6--3-5-6--3-5-6--3-5-6--3-5-6--3-5-6--3-5-6
--3-5-6--3-5-6--3-5-6--3-5-6--3-5-6--3-5-6--3-5-6--3-5-6--3-5-6

Dodaj komentarz ...i/lub link do filmiku video

Zaloguj się do serwisu
Ostatnie komentarze
1.
LucasG
2010-02-06 23:31
Geohound - ja tam potrafię zagrać kilka dźwięków na tym samym progu różnych strun w standardowym stroju. Pytanie jakby to brzmiało ;-) Trochę niedokładnie się wyraziłeś i niektórzy mogą nie zrozumieć. Pozdrawiam ;-)
2.
al4n3k
2010-02-06 21:34
Dokładnie, zgadzam się z devem. Sam mam zespół, i jeden z naszych utworów nie jest grany powerchordami, tylko właśnie tak jak w tym opracowaniu. Hunter gra w nastrojeniu D|A|F|C|G|D, które nazywa się 'Full step Down' a taby napisałem w Standardzie, którym jest strój E|B|G|D|A|E. Taby są w 100% poprawne. :)
3.
Dejw
2010-01-31 18:40
Tzn nie znam piosenki, ale w wielu utworach, zwłaszcza jeśli chodzi o metalowe zespoły, mamy do czynienia z kwartami, a nie kwintami. Kwarty mają ostrzejsze brzmienie od powerchordów. Także wcale nie jest z góry powiedziane, że to błąd.
4.
Geohound
2010-01-31 18:27
Otóz to... jesli 2 dolne struny grane są na tym samym progu to MUSI byc drop... nie da sie grać na standardzie w taki sposob wiec opracowanie - fail :/
5.
Telewizoor
2010-01-30 16:56
W normalnym stroju power chordów nie buduję się tak: ----- ----- ----- ----- -11-- -11-- tylko tak: ----- ----- ----- ----- ----- -13-- -11--
Wszelkie materiały i wypowiedzi zamieszczone na www.chords.pl są własnością ich autorów.