Zacznij systematycznie uczyć się grać na gitarze razem ze stroną Moja nauka - będziesz miał/miała do niej dostęp po zalogowaniu się w serwisie

Inni (tab) - Hunter

Opracował -a: petlica,
Dodał -a: petlica,
Redaktor: petlica,
Pochodzi z: http://www.chords.pl/
Data publikacji: 2013-01-28 08:39
 
Moja nauka


Ups, problem :-/
Zaloguj się Mój śpiewnik
drop-C

  Intro
D|----0-------------|----0---------------------|
A|------3-----------|------3-------------------|
F|--------0---------|--------0-----------------|
C|------------------|--------------------------|
G|----------3-------|----------3---------------|
C|-0----------------|-0-------------0-2b(3)-2~-|


  Solo
D|---------------------|------------------------|
A|------------------13-|------------------------|
F|---------10----------|-9--------(9)\-------10-|
C|---------------------|-----------------/12----|
G|---------------------|------------------------|
C|---------------------|------------------------|
          volume.....................

D|---------------------|------------------------|
A|-13------------------|------------------------|
F|-12b(14)-----12~-----|-(12)-------------10-12-|
C|---------------------|---------------12-------|
G|---------------------|------------------------|
C|---------------------|------------------------|


D|---------------------|------------------------|
A|---------------------|------------------------|
F|---Tu muszę dopisać--|------------------------|
C|---------------------|------------------------|
G|---------------------|------------------------|
C|---------------------|------------------------|


D|---------------------|------------------------|
A|---------------------|------------------------|
F|---------------------|------------------------|
C|---Tu muszę dopisać--|------------------------|
G|---------------------|------------------------|
C|---------------------|------------------------|


 Verse            x3
D|----0-------------|----0---------------------|
A|------3-----------|------3-------------------|
F|--------0---------|--------0-----------------|
C|------------------|--------------------------|
G|----------3-------|----------3---------------|
C|-0----------------|-0-------------0-2b(3)-2~-|



  Pre-Ref_1
D|--------------------------|-----------------------|
A|--------------------------|-----------------------|
F|-------0------------------|-------2---------------|
C|-----0---0--------------0-|-----0---0-------------|
G|---3-------3----------3---|---3-------3-----------|
C|-3-----------3------2-----|-0-----------0---------|

                             Lick_1
D|--------------------------|---------------------------------|
A|--------------------------|---------------------------------|
F|--------------------------|------------9/11-11/12---11\9-7--|
C|--------------------------|------------x-----x-------x---x--|
G|--------------------------|------------7/9---9/10----9\7-5--|
C|--------------------------|---------------------------------|


  Pre-Ref_2
D|----------------------------|------------------------------|
A|----------------------------|------------------------------|
F|-------0------------0-------|-------2--------------2-------|
C|-----0---0------0---------0-|-----0---0------0---0---0---0-|
G|---3-------3------3-----3---|---3-------3------3-------3---|
C|-3-----------3--------2-----|-0-----------0----------------|


  Ref                 x3
D|----------------------|------------------------------|
A|----------------------|------------------------------|
F|-------------5--------|--------------5---------------|
C|-0-----------5--------|-0------------5---------------|
G|-0-----------3--------|-0------------3---------------|
C|-0--------------------|-0----------------------------|
 |                      |                              |
D|----------------------|------------------------------|
A|----------------------|------------------------------|
F|10-9-7-10-9-7-5-------|10-9-7-10-9-7-5---------------|
C|-x-x-x--x-x-x-5-------|-x-x-x--x-x-x-5---------------|
G|-8-7-5--8-7-5-3-------|-8-7-5--8-7-5-3---------------|
C|----------------------|-------------------0-2b(3)-2~-|



  Outro
D|-13----12-10------8-------------------------------|
A|--------------------10-----6-5b(6r5b6r5r6r5r6r5)~-|Gtr_1
F|--------------------------------------------------|
C|--------------------------------------------------|
G|-----------------/7-3-----------------------------|Gtr_2
C|--------------------------/7-2b(3r2b3r2r3r2r3r2)~-|



D|-13----12-10------8-------------------------------|
A|--------------------10-----6-5b(6r5b6r5r6r5r6r5)~-|Gtr_1
F|--------------------------------------------------|
C|-10-----7-----------------------------------------|
G|---------/8------/7-3-----------------------------|Gtr_2
C|--------------------------/7-2b(3r2b3r2r3r2r3r2)~-|


  Outro Gtr_3
D|----------------------------|------------------------------|
A|----------------------------|------------------------------|
F|-------0------------0-------|-------2--------------2-------|
C|-----0---0------0---------0-|-----0---0------0---0---0---0-|
G|---3-------3------3-----3---|---3-------3------3-------3---|
C|-3-----------3--------2-----|-0-----------0----------------|


pozdr
petlica

Dodaj komentarz ...i/lub link do filmiku video

Zaloguj się do serwisu
Ostatnie komentarze
1.
Michał Gralak
2014-09-18 19:59
dooopisz prosze:D
2.
lllukasz111
2013-01-29 17:57
dzięki wielkie :)
Wszelkie materiały i wypowiedzi zamieszczone na www.chords.pl są własnością ich autorów.