Zacznij systematycznie uczyć się grać na gitarze razem ze stroną Moja nauka - będziesz miał/miała do niej dostęp po zalogowaniu się w serwisie

Dura Lex Sed Lex - Hunter

Opracował -a: petlica,
Dodał -a: petlica,
Redaktor: petlica,
Pochodzi z: http://www.chords.pl
Data publikacji: 2011-05-23 08:40
 
Moja nauka


Ups, problem :-/
Zaloguj się Mój śpiewnik
dropped C

Intro - Riff A
D|-----------------|-----------------|-----------------|-----------------|
A|-----------------|-----------------|-----------------|-----------------|
F|-----------------|-----------------|-----------------|-----------------|
C|-0-----1-----3---|-0-----1-----3---|-0-----1-----3---|-0-----1-----3---|
G|-0-----1-----3---|-0-----1-----3---|-0-----1-----3---|-0-----1-----3---|
C|-0-0-0-1-0-0-3-0-|-0-0-0-1-0-0-3-0-|-0-0-0-1-0-0-3-0-|-0-0-0-1-0-0-3-0-|
     pm.   pm.   pm    pm.   pm.   pm    pm.   pm.   pm    pm.   pm.   pm



Verse - Riff B                                                        x2
|-----------------|-----------------|-----------------|-----------------|
|-----------------|-----------------|-----------------|-----------------|
|-----------------|-----------------|-----------------|-----------------|
|-----------------|-----------------|-----------------|-----------------|
|-0-0-0-1-1-1-3-3-|-0-0-0-1-1-1-3-3-|-0-0-0-1-1-1-3-3-|-0-0-0-1-1-1-3-3-|
|-0-0-0-1-1-1-3-3-|-0-0-0-1-1-1-3-3-|-0-0-0-1-1-1-3-3-|-0-0-0-1-1-1-3-3-|
  pm.............   pm.............   pm.............   pm.............

Pre-Ref 1 - Riff C
D|-----------------|-----------------|-----------------|-----------------|
A|-----------------|-----------------|-----------------|-----------------|
F|-----------------|-----------------|-----------------|-----------------|
C|-5-----5---------|-3-----3---------|-8-----8---------|-6-----6---6-6-6-|
G|-5-----5---------|-3-----3---------|-8-----8---------|-6-----6---6-6-6-|
C|-5-5-5-5-5-5-5-5-|-3-3-3-3-3-3-3-3-|-8-8-8-8-8-8-8-8-|-6-6-6-6-6-6-6-6-|
     pm.   pm.....    pm.   pm......     pm.   pm.....   pm.   pm.

Ref

Riff A
D|-----------------|-----------------|-----------------|-----------------|
A|-----------------|-----------------|-----------------|-----------------|
F|-----------------|-----------------|-----------------|-----------------|
C|-0-----1-----3---|-0-----1-----3---|-0-----1-----3---|-0-----1-----3---|
G|-0-----1-----3---|-0-----1-----3---|-0-----1-----3---|-0-----1-----3---|
C|-0-0-0-1-0-0-3-0-|-0-0-0-1-0-0-3-0-|-0-0-0-1-0-0-3-0-|-0-0-0-1-0-0-3-0-|
     pm.   pm.   pm    pm.   pm.   pm    pm.   pm.   pm    pm.   pm.   pm

Riff D
D|-----------------|-----------------|-----------------|-----------------|
A|-----------------|-----------------|-----------------|-----------------|
F|-----------------|-----------------|-----------------|-----------------|
C|-7-----8----10---|-7-----8----10---|-7-----8----10---|-7-----8----10---|
G|-5-----6-----8---|-5-----6-----8---|-5-----6-----8---|-5-----6-----8---|
C|---0-0---0-0---0-|---0-0---0-0---0-|---0-0---0-0---0-|---0-0---0-0---0-|
     pm.   pm.   pm    pm.   pm.   pm    pm.   pm.   pm    pm.   pm.   pm


Pre-Ref 2 - Riff E
D|-----------------|-----------------|-----------------|-----------------|
A|-----------------|-----------------|-----------------|-----------------|
F|-----------------|-----------------|-----------------|-----------------|
C|-5-----5-----5---|-3-----3-----3---|-8-----8-----8---|-6-----6---6-6-6-|
G|-5-----5-----5---|-3-----3-----3---|-8-----8-----8---|-6-----6---6-6-6-|
C|-5-5-5-5-5-5-5-5-|-3-3-3-3-3-3-3-3-|-8-8-8-8-8-8-8-8-|-6-6-6-6-6-6-6-6-|
     pm.   pm.   pm    pm.   pm.   pm    pm.   pm.   pm    pm.   pm.

Pre-Ref 2 - Riff F
D|-----------------|-----------------|-----------------|-----------------|
A|-----------------|-----------------|-----------------|-----------------|
F|-----------------|-----------------|-----------------|-----------------|
C|-5-5-5-5-5-5-5-5-|-3-3-3-3-3-3-3-3-|-8-8-8-8-8-8-8-8-|-6-6-6-6-6-6-6-6-|
G|-5-5-5-5-5-5-5-5-|-3-3-3-3-3-3-3-3-|-8-8-8-8-8-8-8-8-|-6-6-6-6-6-6-6-6-|
C|-5-5-5-5-5-5-5-5-|-3-3-3-3-3-3-3-3-|-8-8-8-8-8-8-8-8-|-6-6-6-6-6-6-6-6-|

Dodaj komentarz ...i/lub link do filmiku video

Zaloguj się do serwisu
Wszelkie materiały i wypowiedzi zamieszczone na www.chords.pl są własnością ich autorów.