Zacznij systematycznie uczyć się grać na gitarze razem ze stroną Moja nauka - będziesz miał/miała do niej dostęp po zalogowaniu się w serwisie

Funeral of provincial Vampire (tab) - Hunter

Opracował -a: rybazmarsa88,
Dodał -a: rybazmarsa88,
Redaktor: Tomek Pietrzkowski,
Data publikacji: 2010-05-26 08:42
 
Moja nauka


Ups, problem :-/
Zaloguj się Mój śpiewnik
2x ( I )
-----------------------------------------------------------------
-----------------------------------------------------------------
-12----12-13-12--12-13-12----------------------------------------
---10--------------------15-13-12--------------------------------
-----------------------------------------------------------------
-----------------------------------------------------------------
2x ( II )
-----------------------------------------------------------------
-13~~-15-16-13---12----------------------------------------------
-----------------------------------------------------------------
-----------------------------------------------------------------
-----------------------------------------------------------------
-----------------------------------------------------------------

I ( 2x ), II ( 2x )


2x ( III ) ,                    2x ( II )
--15---15-16-15--15-16-15--------------------------------------
----13-------------------18-16-15------------------------------
---------------------------------------------------------------
---------------------------------------------------------------
---------------------------------------------------------------
---------------------------------------------------------------
1:13s
-------------------------------------------------------------------
-------------------------------------------------------------------
---------------------------------------12-------------------12-13--
-12----13---15--13---12----13----15---------15--13----15-----------
----10----10--10---10----10---10----10----10--10---10----10--10----
-------------------------------------------------------------------
        coraz szybciej..
---------------------------------------------------------------------
---------------------------------------------------12--13--12--13----
-12--------------------------------12--13--12--13--------------------
------15----13----12---13---15---------------------------------------
---10----10----10---10---10---10-----10--10--10--10--10--10--10--10--
---------------------------------------------------------------------

------------------13--15-----------13--15--19--------------------
-15--16--15--16------------15--16--------------------------------
-----------------------------------------------------------------
-----------------------------------------------------------------
---10--10--10--10---10--10---10--10--10--10----------------------
-----------------------------------------------------------------

1:33
-22-20-19-16-15---------------------------------------------------------
---------------18-16-15-------------------------------12n.h-------------
-----------------------17-16--------------------------------------------
----------------------------18-17---------------------------------------
---------------------------------20-18-17-15----------------------------
--------------------------------------------19-17-15--------------------

szybciej III ( 4x )

2:10s                                      2x
------------------10---------------10-13---||--12--------------------------
-------12-------12------13-15-----9--------||------------------------------
-----12-------10------12--------10---------||------------------------------
---13-------12------13---------------------||------------------------------
-15----------------------------------------||------------------------------
-------------------------------------------||------------------------------

--11--------------------------11-------------------------------------
----12-13---------15--12--------12-13-------15--12-------------------
---------12-----13-------------------12---13-------------------------
--------------------15------------------------15---------------------
---------------------------------------------------------------------
---------------------------------------------------------------------

4x ( V riff )
-11--------11----------11-----------11-----------11----------19-----
---12-13-----12h13p12----12h13p12-----12h13p12-----12h13p12---------
--------12----------12-----------12-----------12-----------12-------
--------------------------------------------------------------------
--------------------------------------------------------------------
--------------------------------------------------------------------

2:25s
-----------------------------------17-------------------------------
-13--13-16-16-----------------17-19-----------17--------------------
---12---------17---------14-17-----17-19-17-16----------------------
----------------17-----16-------------------------------------------
------------------18-17---------------------------------------------
--------------------------------------------------------------------

-16-15------------------------------------------------------------------
------18-16----15-----------------------------------13--------13--------
-----------------16---------12---12--12--12--12--12---------------------
-------------------17-15--13---12--10-----------------13---12---12--12--
---------------------------------------13--11--10--------10-------10----
------------------------------------------------------------------------
2:33s ( to samo co wyżej ), następnie w 2:42s:
-12--12---10--10-----16--16--15--15-15----------------------------------
---13--13---11--11-16--16--16--16-----16--16---15--15---15--15----------
----------------------------------------17---15--15---16--16--16-16-----
------------------------------------------------------------------------
------------------------------------------------------------------------
------------------------------------------------------------------------

-----------------------------------------------------------------
---16--16---15--15--14--14---------------------------------------
-18--18---15--15--16--16---16-16---------------------------------
-----------------------------------------------------------------
-----------------------------------------------------------------
-----------------------------------------------------------------
koniec: III, II i na koniec V

Dodaj komentarz ...i/lub link do filmiku video

Zaloguj się do serwisu
Ostatnie komentarze
1.
Wilku
2014-03-06 20:23
To jest partia Jelonka przeniesiona na gitarę. Ma ktoś może taby do partii Jebika?
2.
rybazmarsa88
2010-05-28 18:11
no sorry moj blad
3.
SomebodyElse
2010-05-27 19:24
to i parę innych piosenek tu- Lorr, Pizzicato Asceticism, BaRock- są z solowej płyty Jelonka
Wszelkie materiały i wypowiedzi zamieszczone na www.chords.pl są własnością ich autorów.