Zacznij systematycznie uczyć się grać na gitarze razem ze stroną Moja nauka - będziesz miał/miała do niej dostęp po zalogowaniu się w serwisie

BaRock (tab) - Hunter

Opracował -a: rybazmarsa88,
Dodał -a: rybazmarsa88,
Redaktor: Tomek Pietrzkowski,
Data publikacji: 2010-05-26 08:42
 
Moja nauka


Ups, problem :-/
Zaloguj się Mój śpiewnik
Bardzo trudne jest zagranie w tym tempie co w utworze
struny basowe i wiolinowe więc można opuścić basowe.

wstęp:(1515 = -15-15- )

2x
---1515--1515--1515--1515--1717--1717--1515--1414-------
--------------------------------------------------------
--------------------------------------------------------
-12----12----12----12----12----12----12----12-----------
--------------------------------------------------------
--------------------------------------------------------

Wchodzi smyczek w tle, skrzypce prowadzące grają tak:

|--8 razy-||--8razy--||--8 razy--||--4 razy-||--4 razy--|
---1818--------1717------1515--------1414-------1515----
--------------------------------------------------------
--------------------------------------------------------
-12--------------------12----------12---------12--------
-------------15-----------------------------------------
--------------------------------------------------------

a w tym samym czasie w tle:
-------------------------------------------------------------------
-------------------------------------------------------------------
-------------------------------------------------------------------
---------17-15---------------15-13-12----------13-12-10------------
--------------18-17-15---------------15-13-12----------13-12-10-9--
-15~~-----------------18-17------------------15--------------------

--------------------------------------------------------
--------------------------------------------------------
--------------------------------------------------------
--------------------------------------------------------
-10-10-12-12--------------------------------------------
--------------------------------------------------------

wchodzi gitara elektryczna i to samo co wyżej

w 36 s:

|-----2 razy--------|
------------------------------------------------------------------14----
-----------------------------------------10---------------------15------
---------8-7---------------------------11------15-14-15-12-11-14--------
-10-8-7-8---10p8-7h8---13-12-13-10-9-10---------------------------------
------------------------------------------------------------------------
------------------------------------------------------------------------

Następnie wszyystko jeszcze raz

1:19s ( 2 razy )
--------------------------------------------------------
-12-12-12-12-11-11-11-11-14-14-14-14-12-12-12-12--------
--------------------------------------------------------
--------------------------------------------------------
--------------------------------------------------------
--------------------------------------------------------

---------------------------------------------18---------
-15-15-15-15-14-14-14-14-17-17-17-17-15-15-15-----------
--------------------------------------------------------
--------------------------------------------------------
--------------------------------------------------------
--------------------------------------------------------

ponownie całość 2 razy, w 2:42 grają same skrzypce bez
podkładu, na koniec

-----15s17-17~~-----------------------------------------
---14---------------------------------------------------
--------------------------------------------------------
-12-----------------------------------------------------
--------------------------------------------------------
--------------------------------------------------------

Dodaj komentarz ...i/lub link do filmiku video

Zaloguj się do serwisu
Wszelkie materiały i wypowiedzi zamieszczone na www.chords.pl są własnością ich autorów.