Zacznij systematycznie uczyć się grać na gitarze razem ze stroną Moja nauka - będziesz miał/miała do niej dostęp po zalogowaniu się w serwisie

Przy wódce (tab) - Hunter

Opracował -a: petlica,
Dodał -a: petlica,
Redaktor: petlica,
Pochodzi z: http://www.chords.pl/
Data publikacji: 2015-11-23 22:11
 
Moja nauka


Ups, problem :-/
Zaloguj się Mój śpiewnik
Intro
                    x3
|---------------------|--------------------|
|---------------------|--------------------|
|---------------------|--------------------|
|---------------------|--------------------|
|---------------------|--------------------|
|-0---3---5---3-5/6-5-|-0---3---5---6-5-3--|


                    x3
|---------------------|--------------------|
|---------------------|--------------------|
|---------------------|--------------------|
|---------------------|--------------------|
|---------------------|--------------------|
|-0---3---5---3-5/6-5-|-0---3---5----------|



Riff A
                    x3
|---------------------|--------------------|
|---------------------|--------------------|
|---------------------|--------------------|
|---------------------|--------------------|
|-0---3---5---6---7---|-0---3---5---3--6-5-|
|-0---3---5---6---7---|-0---3---5---3--6-5-|
                                   pm.....

                    x3
|---------------------|--------------------|
|---------------------|--------------------|
|---------------------|--------------------|
|---------------------|-0------------------|
|-0---3---5---6---7---|-0------------------|
|-0---3---5---6---7---|-0------------------|


Verse
                                                          x4
|---------0------------0------|-------1----------3----------|
|-------0---0---3--------3----|-----1----------3----3-------|
|-----2-------2------------2--|---0----------0--------0-----|
|---4---------------4---------|-3----------5----------------|
|-----------------------------|-----------------------------|
|-0---------------------------|-----------------------------|



Ref - Riff A
                    x3
|---------------------|--------------------|
|---------------------|--------------------|
|---------------------|--------------------|
|---------------------|--------------------|
|-0---3---5---6---7---|-0---3---5---3--6-5-|
|-0---3---5---6---7---|-0---3---5---3--6-5-|
                                   pm......

                    x3
|---------------------|--------------------|
|---------------------|--------------------|
|---------------------|--------------------|
|---------------------|-0------------------|
|-0---3---5---6---7---|-0------------------|
|-0---3---5---6---7---|-0------------------|




Ref 2
|---------------------|--------------------|--------------|--------------|
|---------------------|--------------------|--------------|--------------|
|---------------------|--------------------|--------------|--------------|
|---------------------|--------------------|-7------------|-5-----3--2---|
|-0---3---5---6---7---|-0---3---5---3--6-5-|-5------------|-3-----1--0---|
|-0---3---5---6---7---|-0---3---5---3--6-5-|--------------|--------------|
                                   pm......

Dodaj komentarz ...i/lub link do filmiku video

Zaloguj się do serwisu
Ostatnie komentarze
1.
rybazmarsa88
2016-06-27 15:05
Hej. Straszny błąd chordsa jest to, że nie można sobie wysyłać priva dlatego wybacz, że piszę tutaj. Mam wielką prośbę. Pamiętam Cię jeszcze z czasów, gdy sam sporo rozczytywałem ze słuchu taby i akordy (piękne czasy:)). Teraz niestety czasu praktycznie nie mam na granie. Chciałbym, abyś rozczytał Perfect - Bujanie w Obłokach. Chodzi o główny motyw. Tab, który znajduje się podajże tutaj jest conajmniej słaby. Sądzę, że zajmie Ci to 15 minut:) Będe wdzięczny. Pozdrawiam serdecznie!
Wszelkie materiały i wypowiedzi zamieszczone na www.chords.pl są własnością ich autorów.