Zacznij systematycznie uczyć się grać na gitarze razem ze stroną Moja nauka - będziesz miał/miała do niej dostęp po zalogowaniu się w serwisie

Śmierci śmiech - Hunter

Opracował -a: petlica,
Dodał -a: petlica,
Redaktor: petlica,
Pochodzi z: http://www.chords.pl
Data publikacji: 2011-05-23 08:40
 
Moja nauka


Ups, problem :-/
Zaloguj się Mój śpiewnik
dropped C

Intro - Riff A
D|----------------------------|----------------------------|
A|----------------------------|----------------------------|
F|----------------------------|----------------------------|
C|--2-------------9-10--------|--2-------------9-10--------|
G|--0--0-0-0-0-0--7--8--8-8-8-|--0--0-0-0-0-0--7--8--8-8-8-|
C|----------------------------|----------------------------|
       pm.......        pm....      pm.......        pm...

Riff B
|-------------------|-------------------|-------------------|-------------------|
|-------------------|-------------------|-------------------|-------------------|
|-------------------|-------------------|-------------------|-------------------|
|--2--------2--0--3-|--2--------2--0--3-|--2--------2--0--3-|--2--------5---6---|
|--2--------2--0--3-|--2--------2--0--3-|--2--------2--0--3-|--2--------3---6---|
|--2--------2--0--3-|--2--------2--0--3-|--2--------2--0--3-|--2------------6---|


Riff C
|------------|------------|------------|------------|
|------------|------------|------------|------------|
|------------|------------|------------|------------|
|------------|--5----7----|------------|--5----7----|
|--7----5----|--3----5----|--7----5----|--3----5----|
|--7----5----|------------|--7----5----|------------|


|---------------------------------|---------------------------------|
|---------------------------------|---------------------------------|
|---------------------------------|---------------------------------|
|---------------------------------|---------------------------------|
|---------------------------------|---------------------------------|
|-7-7-7-7-7-7-7-7-5-5-5-5-5-5-5-5-|-0-0-0-0-0-0-0-0-5-5-5-5-5-5-5-5-|
  pm.............................   pm.............................

|---------------------------------|---------------------------------|
|---------------------------------|---------------------------------|
|---------------------------------|---------------------------------|
|---------------------------------|---------------------------------|
|---------------------------------|-3-3-3-3-3-3-3-3-5-5-5-5-5-5-5-5-|
|-7-7-7-7-7-7-7-7-5-5-5-5-5-5-5-5-|---------------------------------|
  pm.............................   pm.............................


Riff D                      x3
D|----------------------------|---------------------|
A|----------------------------|---------------------|
F|----------------------------|---------------------|
C|--2-------------9-10--------|-2--------(2)--------|
G|--0--0-0-0-0-0--7--8--8-8-8-|-2--------(2)--------|
C|----------------------------|-2--------(2)--------|
       pm.......        pm...


|------------------|---------------------|---------------------|---------------------|
|------------------|-----10-x--x-x--10-x-|-----10-x--x-x--10-x-|-----10-x--x-x--10-x-|
|------------------|------9-x--x-x---9-x-|------9-x--x-x---9-x-|------9-x--x-x---9-x-|
|-7/---------------|------7-x--x-x---7-x-|------7-x--x-x---7-x-|------7-x--x-x---7-x-|
|-7/---------------|-(7)-----------------|-(7)-----------------|-(7)-----------------|
|-7/---------------|-(7)-----------------|-(7)-----------------|-(7)-----------------|


                                                                                        x2
|---------------------|---------------------|----------------------|----------------------|
|-----10-x--x-x--10-x-|------8-x--x-x---8-x-|------13-x--x-x--13-x-|------15-x--x-x--15-x-|
|------9-x--x-x---9-x-|------7-x--x-x---7-x-|------12-x--x-x--12-x-|------14-x--x-x--14-x-|
|------7-x--x-x---7-x-|------5-x--x-x---5-x-|------10-x--x-x--10-x-|------12-x--x-x--12-x-|
|-(7)-----------------|-(5)-----------------|-(10)-----------------|-(12)-----------------|
|-(7)-----------------|-(5)-----------------|-(10)-----------------|-(12)-----------------|


|------------------|------------------|------------------|------------------|
|------------------|------------------|------------------|------------------|
|------------------|------------------|-------2-------2--|------------------|
|-------7-------7--|-------5-------5--|-------0-------0--|-------5-------5--|
|-------7-------7--|-------5-------5--|-------0-------0--|-------5-------5--|
|-7-7-7-7-7-7-7-7--|-5-5-5-5-5-5-5-5--|-0-0-0-0-0-0-0-0--|-5-5-5-5-5-5-5-5--|
  pm...   pm....     pm..............   pm....  pm....     pm....  pm....


|------------------|------------------|------------------|------------------|
|------------------|------------------|------------------|------------------|
|------------------|------------------|------------------|------------------|
|-------7-------7--|-------5-------5--|-------5-------5--|-------7-------7--|
|-------7-------7--|-------5-------5--|-3-3-3-3-3-3-3-3--|-5-5-5-5-5-5-5-5--|
|-7-7-7-7-7-7-7-7--|-5-5-5-5-5-5-5-5--|------------------|------------------|
  pm...   pm....     pm..............   pm....  pm....     pm....  pm....


Riff E
|-------------------|-------------------|-------------------|-------------------|
|-------------------|-------------------|-------------------|-------------------|
|--9-------9--7--10-|--9-------9--7--10-|--9-------9--7--10-|--9----------------|
|--9-------9--7--10-|--9-------9--7--10-|--9-------9--7--10-|--9----------------|
|--7-------7--5---8-|--7-------7--5---8-|--7-------7--5---8-|--7----------------|
|-------------------|-------------------|-------------------|-------------------|


Riff F                                                            x4
|---------------------------------|---------------------------------|
|---------------------------------|---------------------------------|
|---------------------------------|---------------------------------|
|---------------------------------|---------------------------------|
|-2-2-2-2-2---2-2-2-2-2---2-2-2-2-|-2---2-2-2-2-2-------------------|
|-2-2-2-2-2---2-2-2-2-2---2-2-2-2-|-2---2-2-2-2-2-------------------|
  pm.......   pm.......   pm.........   pm.......



Riff G                             x3
|---------------|-----------------|---------------|--------------------|
|-6--6-6-6--6-8-|-10/-------------|-6--6-6-6--6-8-|-10---10---10---10/-|
|-5--5-5-5--5-7-|--9/-------------|-5--5-5-5--5-7-|--9----9----9----9/-|
|-3--3-3-3--3-5-|--7/-------------|-3--3-3-3--3-5-|--7----7----7----7/-|
|-3--3-3-3--3-5-|--7/-------------|-3--3-3-3--3-5-|--7----7----7----7/-|
|-3--3-3-3--3-5-|--7/-------------|-3--3-3-3--3-5-|--7----7----7----7/-|


Riff H
|------------3-3-|-3-3------------|----------------------|----------------------|
|-6-6-6-6----6-6-|-6-6----6-6-6-6-|-10-10-10-10----10-10-|-10-10----10-10-10-10-|
|-5-5-5-5----5-5-|-5-5----5-5-5-5-|--9--9--9--9-----9--9-|--9--9-----9--9--9--9-|
|-3-3-3-3----3-3-|-3-3----3-3-3-3-|--7--7--7--7-----7--7-|--7--7-----7--7--7--7-|
|-3-3-3-3----3-3-|-3-3----3-3-3-3-|--7--7--7--7-----7--7-|--7--7-----7--7--7--7-|
|-3-3-3-3----3-3-|-3-3----3-3-3-3-|--7--7--7--7-----7--7-|--7--7-----7--7--7--7-|



Riff I
|-------------------------|-------------------------|-------------------------|-------------------------|
|-------------------------|-------------------------|-------------------------|-------------------------|
|-------------------------|-------------------------|-------------------------|-------------------------|
|-2-2-2-2-2---2-2-2-2-2---|-------------------------|-------------------------|-------------------------|
|-0-0-0-0-0---0-0-0-0-0---|-3-3-3-3-3---3-3-3-3-3---|-2-2-2-2-2---2-2-2-2-2---|-2-2-2-2-2---2-2-2-2-2---|
|-------------------------|-3-3-3-3-3---3-3-3-3-3---|-2-2-2-2-2---2-2-2-2-2---|-2-2-2-2-2---2-2-2-2-2---|
  pm.......   pm.......     pm.......   pm.......     pm.......   pm.......     pm.......   pm.......


|----------------|----------------|----------------|----------------|
|----------------|----------------|----------------|----------------|
|-2--------------|----------------|----------------|----------------|
|-2--------------|-3--------------|-2--------------|-(2)------------|
|-0--------------|-3--------------|-2--------------|-(2)------------|
|----------------|-3--------------|-2--------------|-(2)------------|


END

|----------------|----------------|------------------|------------------|
|----------------|----------------|------------------|------------------|
|----------------|----------------|------------------|------------------|
|--2--2--2--2----|--2--2--2--2----|-2-2-2-2-2-2-2-2--|-2-2-2-2-2-2-2-2--|
|--2--2--2--2----|--2--2--2--2----|-2-2-2-2-2-2-2-2--|-2-2-2-2-2-2-2-2--|
|--2--2--2--2----|--2--2--2--2----|-2-2-2-2-2-2-2-2--|-2-2-2-2-2-2-2-2--|

Dodaj komentarz ...i/lub link do filmiku video

Zaloguj się do serwisu
Wszelkie materiały i wypowiedzi zamieszczone na www.chords.pl są własnością ich autorów.