Zacznij systematycznie uczyć się grać na gitarze razem ze stroną Moja nauka - będziesz miał/miała do niej dostęp po zalogowaniu się w serwisie

RnR (tab) - Hunter

Opracował -a: petlica,
Dodał -a: petlica,
Redaktor: petlica,
Pochodzi z: http://www.chords.pl/
Data publikacji: 2013-01-29 08:37
 
Moja nauka


Ups, problem :-/
Zaloguj się Mój śpiewnik
drop-C

  Riff A
D|-----------------------------------------------------------------|
A|-----------------------------------------------------------------|
F|-----------------------------------------------------------------|
C|---------7---------------------5---------------8-------------8---|
G|-3/5-----5-----6-----5---3/5---3-----5---3/5---6-----6---3/5-6---|
C|-3/5-0-0---0-0-6-0-0-5-0-3/5-0---0-0-5-0-3/5-0---0-0-6-0-3/5-----|
       pm.   pm.   pm.  pm    pm   pm.  pm    pm   pm.  pm

D|-----------------------------------------------------------------|
A|-----------------------------------------------------------------|
F|-----------------------------------------------------------------|
C|---------7---------------------5---------------8-----------------|
G|-3/5-----5-----6-----5---3/5---3-----5---3/5---6-----6---3/5-3---|
C|-3/5-0-0---0-0-6-0-0-5-0-3/5-0---0-0-5-0-3/5-0---0-0-6-0-3/5-3---|
       pm.   pm.   pm.  pm    pm   pm.  pm    pm   pm.  pm

D|-----------------------------------------------------------------|
A|-----------------------------------------------------------------|
F|-----------------------------------------------------------------|
C|---------7---------------------5---------------8-------------8---|
G|-3/5-----5-----6-----5---3/5---3-----5---3/5---6-----6---3/5-6---|
C|-3/5-0-0---0-0-6-0-0-5-0-3/5-0---0-0-5-0-3/5-0---0-0-6-0-3/5-----|
       pm.   pm.   pm.  pm    pm   pm.  pm    pm   pm.  pm

D|-------------------------------------------------------------------|
A|-------------------------------------------------------------------|
F|-------------------------------------------------------------------|
C|---------7---------------------5---------------8-------------------|
G|-3/5-----5-----6-----5---3/5---3-----5---3/5---6-----6---3/5---3-5-|
C|-3/5-0-0---0-0-6-0-0-5-0-3/5-0---0-0-5-0-3/5-0---0-0-6-0-3/5-0-3-5-|
       pm.   pm.   pm.  pm    pm   pm.  pm    pm   pm.  pm    pm



  Verse                                                              x3
D|-----------------------------|---------------------------------------|
A|-----------------------------|---------------------------------------|
F|-----------------------------|---------------------------------------|
C|-----------------------------|---------------------------------------|
G|-----------------------------|-----------------------------------3-5-|
C|-0---0-0----0---0-0-0---0-0--|-0---0-0-0---0-0---0---0-0-0---0-0-3-5-|
  pm..............................................................

D|-----------------------------|---------------------------------------|
A|-----------------------------|---------------------------------------|
F|-----------------------------|---------------------------------------|
C|-----------------------------|---------------------------------------|
G|-----------------------------|-----------------------------------3---|
C|-5---5-5----5---5-5-5---5-5--|-5---5-5-5---5-5---5---5-5-5---5-5-3---|
  pm..............................................................

  Ref
D|-------------|----------------|---------------|--------------|
A|-------------|----------------|---------------|--------------|
F|-7-----------|----------------|-3-------------|-5------------|
C|-7-----------|-5--------------|-3-------------|-5------------|
G|-5-----------|-5--------------|-1-------------|-3------------|
C|-------------|-5--------------|---------------|--------------|

  Outro
D|------------------------------------------------------------------|
A|------------------------------------------------------------------|
F|------------------------------------------------------------------|
C|------------------------------------------------------------------|
G|-3-5--------------------------------------------------------------|
C|-3-5-0--0-0---0---0-0-0---0-0---0---0-0-0----0-0---0---0-0-0--0-0-|
         pm........................................................
D|------------------------------------------------------------------|
A|------------------------------------------------------------------|
F|------------------------------------------------------------------|
C|------------------------------------------------------------------|
G|-3-5--------------------------------------------------------------|
C|-3-5-0--0-0---0---0-0-0---0-0---0---0-0-0----0-0---0---0-0-0------|
         pm........................................................


pozdr
petlica

Dodaj komentarz ...i/lub link do filmiku video

Zaloguj się do serwisu
Wszelkie materiały i wypowiedzi zamieszczone na www.chords.pl są własnością ich autorów.