Zacznij systematycznie uczyć się grać na gitarze razem ze stroną Moja nauka - będziesz miał/miała do niej dostęp po zalogowaniu się w serwisie

Zbawienie - Hunter

Opracował -a: petlica,
Dodał -a: petlica,
Redaktor: petlica,
Pochodzi z: http://www.chords.pl
Data publikacji: 2011-05-24 08:41
 
Moja nauka


Ups, problem :-/
Zaloguj się Mój śpiewnik
dropped C

Intro - Riff A                x3
D|-------------------------------|-------------------------------|
A|-------------------------------|-------------------------------|
F|-------------------------------|-------------------------------|
C|--------3/5-5-5-----------8--7-|--------3/5-5-5-----------3--5-|
G|-0------3/5-5-5-----------8--7-|-0------3/5-5-5-----------3--5-|
C|-0--0-0-3/5-5-5--3h5p3p0--8--7-|-0--0-0-3/5-5-5--3h5p3p0--3--5-|


Riff B
D|-------------------------------|------------------------------|
A|-------------------------------|------------------------------|
F|-------------------------------|------------------------------|
C|--------3/5-5-5-----------8--7-|-------3/5-5-5-----------8--7-|
G|-0--0---3/5-5-5-----------8--7-|-0--0--3/5-5-5-----------8--7-|
C|-0--0---3/5-5-5--3h5p3p0--8--7-|-0--0--3/5-5-5--3h5p3p0--8--7-|


D|-------------------------------|-------------------------------|
A|-------------------------------|-------------------------------|
F|-------------------------------|-------------------------------|
C|--------3/5-5-5-----------8--7-|--------3/5-5-5----------------|
G|-0------3/5-5-5-----------8--7-|-0------3/5-5-5-----------1--3-|
C|-0--0-0-3/5-5-5--3h5p3p0--8--7-|-0--0-0-3/5-5-5--3h5p3p0--1----|



Verse-Riff C                  x3
|-------------------------------|-------------------------------|
|-------------------------------|-------------------------------|
|-------------------------------|-------------------------------|
|-------------------------------|-------------------------------|
|--------3h5-5-5--3h5p3p0--1--3-|--------3h5-5-5--3h5p3p0-------|
|-0------------------------1----|-0------------------------1----|


                              x3
|-------------------------------|-------------------------------|
|-------------------------------|-------------------------------|
|-------------------------------|-------------------------------|
|-----------------------------3-|--------------------------0--2-|
|--------3h5-5-5--3h5p3p0--1----|--------3h5-5-5--3h5p3p0--0--2-|
|-0--0-0------------------------|-0--0-0-------------------0--2-|

Ref 1-Riff D
|-----------------|----------------|
|-----------------|----------------|
|-----------------|----------------|
|-3-3-3-3-3-3-3-3-|-5-5-5-5-5---7--|
|-3-3-3-3-3-3-3-3-|-3-3-3-3-5---7--|
|-3-3-3-3-3-3-3-3-|---------5---7--|


|--------------------------------|-------------------------------|
|--------------------------------|-------------------------------|
|--------------------------------|-------------------------------|
|--------3/5-5-5-----------10--7-|--------3/5-5-5-----------0--2-|
|-0------3/5-5-5-----------10--7-|-0------3/5-5-5-----------0--2-|
|-0--0-0-3/5-5-5--3h5p3p0--10--7-|-0--0-0-3/5-5-5--3h5p3p0--0--2-|


|-----------------|----------------|
|-----------------|----------------|
|-----------------|----------------|
|-3---------------|-5--------------|
|-3---------------|-3--------------|
|-3---------------|----------------|


Ref 2
|-----------------|----------------|
|-----------------|----------------|
|-----------------|----------------|
|-3-3-3-3-3-3-3-3-|-5-5-5-5-5---7--|
|-3-3-3-3-3-3-3-3-|-3-3-3-3-5---7--|
|-3-3-3-3-3-3-3-3-|---------5---7--|

|--------------------------------|-------------------------------|
|--------------------------------|-------------------------------|
|--------------------------------|-------------------------------|
|--------3/5-5-5-----------10--7-|--------3/5-5-5-----------8--7-|
|-0------3/5-5-5-----------10--7-|-0------3/5-5-5-----------8--7-|
|-0--0-0-3/5-5-5--3h5p3p0--10--7-|-0--0-0-3/5-5-5--3h5p3p0--8--7-|


|-----------------|----------------|
|-----------------|----------------|
|-----------------|----------------|
|-3-3-3-3-3-3-3-3-|-5-5-5-5-5---7--|
|-3-3-3-3-3-3-3-3-|-3-3-3-3-5---7--|
|-3-3-3-3-3-3-3-3-|---------5---7--|

Riff E

D|--------------------------------|-------------------------------|
A|--------------------------------|-------------------------------|
F|--------------------------------|-------------------------------|
C|--------3/5-5-5-----------10--9-|--------3/5-5-5-----------9--8-|
G|-0--0---3/5-5-5-----------10--9-|-0------3/5-5-5-----------9--8-|
C|-0--0---3/5-5-5--3h5p3p0--10--9-|-0--0-0-3/5-5-5--3h5p3p0--9--8-|

|---------------------------------|-------------------------------------|
A|--------------------------------|-------------------------------------|
F|--------------------------------|-------------------------------------|
C|--------3/5-5-5-----------8-----|--------3/5-5-5-----------3----------|
G|-0------3/5-5-5-----------8-----|-0------3/5-5-5-----------3----------|
C|-0--0-0-3/5-5-5--3h5p3p0--8-----|-0--0-0-3/5-5-5--3h5p3p0--3--3h5p3p0-|


D|--------------------------------|-------------------------------|
A|--------------------------------|-------------------------------|
F|--------------------------------|-------------------------------|
C|--------3/5-5-5-----------10--9-|--------3/5-5-5-----------9--8-|
G|-0--0---3/5-5-5-----------10--9-|-0--0---3/5-5-5-----------9--8-|
C|-0--0---3/5-5-5--3h5p3p0--10--9-|-0--0---3/5-5-5--3h5p3p0--9--8-|


|---------------------------------|-------------------------------------|
A|--------------------------------|-------------------------------------|
F|--------------------------------|-------------------------------------|
C|--------3/5-5-5-----------8-----|--------3/5-5-5-----------3----------|
G|-0------3/5-5-5-----------8-----|-0------3/5-5-5-----------3----------|
C|-0--0-0-3/5-5-5--3h5p3p0--8-----|-0--0-0-3/5-5-5--3h5p3p0--3--3h5p3p0-|


Riff F                                                              x2
|----------------------------------|----------------------------------|
|----------------------------------|----------------------------------|
|--------------------------8-8-8-8-|--------------------------8-8-8-8-|
|--------------------------7-7-7-7-|--------------------------7-7-7-7-|
|--------------------------6-6-6-6-|--------------------------6-6-6-6-|
|-1p0---------1p0------------------|-1p0---------1p0------------------|


Riff G                           x4                                 x4
|----------------------------------|----------------------------------|
|----------------------------------|----------------------------------|
|----------------------------------|--------------------------8-8-8-8-|
|-------5-----------5--------------|-------5-----------5------7-7-7-7-|
|---------5-----------5--------6-6-|---------5-----------5----6-6-6-6-|
|-0-0-5-----5-0-0-5-----5--0-0-----|-0-0-5-----5-0-0-5-----5----------|
 pm.. NH..... pm. NH.....  pm.      pm.. NH..... pm. NH.....


Riff I
|-----------------------------------------|
|-----------------------------------------|
|-----------------------------------------|
|-----------------------------------------|
|-----------------------------------------|
|-0-0-0-0-0---0-0-0-0-0---0-0-0-0-0-0-0-0-|

Dodaj komentarz ...i/lub link do filmiku video

Zaloguj się do serwisu
Ostatnie komentarze
1.
rybazmarsa88
2011-05-24 09:04
stary super robota:D jesteś jak cyborg;P masz extra słuch:)
Wszelkie materiały i wypowiedzi zamieszczone na www.chords.pl są własnością ich autorów.