Zacznij systematycznie uczyć się grać na gitarze razem ze stroną Moja nauka - będziesz miał/miała do niej dostęp po zalogowaniu się w serwisie

Armia Boga (taby) - Hunter

Opracował -a: rybazmarsa88,
Dodał -a: rybazmarsa88,
Redaktor: Tomek Pietrzkowski,
Data publikacji: 2010-05-17 00:11
 
Moja nauka


Ups, problem :-/
Zaloguj się Mój śpiewnik
-----------------------------------------------------
-----------------------------------------------------
-----------------------------------------------------
-5555-55555555--6666--6666666666---------------------
-5555-55555555--6666--6666666666---------------------
-3333-33333333--4444--4444444444---------------------

4x
-----------------------------------------------------
-----------------------------------------------------
-----------------------------------------------------
-1-3-5---------1-3-6---------------------------------
-1-3-5----5-0--1-3-6---5-0---------------------------
-------0--5-0--------0-5-0---------------------------
         4x
-----------------------------------------------------
-----------------------------------------------------
-----------------------------------------------------
-1-4s3---5-0h1-1-0h1-1-5-6-0h1-1-0h1-1-3-5-----------
-1-4s3---5-0h1-1-0h1-1-5-6-0h1-1-0h1-1-3-5-----------
-----------------------------------------------------

30 s
--------------------------------------------------------------------
--------------------------------------------------------------------
--------------------------------------------------------------------
-5555-5555-3333333-6666-6666-3333333-5555-5555-3333333-6666-6666s0--
-5555-5555-3333333-6666-6666-3333333-5555-5555-3333333-6666-6666s0--
--------------------------------------------------------------------

Dzień..
--------------------------------------------------------
--------------------------------------------------------
------5-------------------------------------------------
------5----------5---------5---5-5-----5-5-5------------
--3-3-3-3-3-3-3--3-3-3-3-3-3-3-3-3-3-3-3-3-3------------
-------------------------------------------3------------

wtedy ty.. jak jak wyzej:
-----------------------------------------------------
-----------------------------------------------------
-----------------------------------------------------
-----5-3-5-------------------------------------------
-3-3-3-3-5-------------------------------------------
---------3-------------------------------------------

refren:
-----------------------------------------------------
-----------------------------------------------------
----------5--------3---------------------------------
----------5--6-----3---------------------------------
--3-3-3-3-3--6-1-1-1---------------------------------
-------------4---------------------------------------

na koniec refrenu:
---------------------------------------------------
---------------------------------------------------
---------------------------------------------------
---------------------------------------------------
--6-6-6-6-6-6-6------------------------------------
--4-4-4-4-4-4-4------------------------------------

refren w 1:45s:

----------------------------------------------------
----------------------------------------------------
----------5-----------------------------------------
----------5-----------------------------------------
--3-3-3-3-3-------1-1-1-1---------------------------
------------4-4-4-----------------------------------
będziesz teraz.. 2x
---------------------------------------------------
---------------------------------------------------
----------3-5--------------------------------------
----------3-5--------------------------------------
-6-6-6-6--1-3--------------------------------------
-4-4-4-4-------------------------------------------

mostek:
-----------------------------------------------------
-----------------------------------------------------
-------------------5--7------------------------------
-----------------------------------------------------
-3-3-3-3-3-3-3-3-3--3---2s3--------------------------
-----------------------------------------------------

5:05s
-----------------------------------------------------
-----------------------------------------------------
-----------------------------------------------------
-----------------------------------------------------
-3-3-3-3-3-3-3-5-3-6-3-2s3---------------------------
-----------------------------------------------------


-----------------------------------------------------
-----------------------------------------------------
-----------------------------------------------------
-5-------5-------5-----6-----6-----------------------
-3-3-3-3-3-3-3-3-3-3-3-4-4-4-4-4-4-------------------
-----------------------------------------------------
        `                       2x
------------------------------------------------------
------------------------------------------------------
------------------------------------------------------
--------------------------------------5555-5555-------
--------------------------------------3333-3333-------
-3333-3333333333-4444-4444444-------------------------

ostatnmia zwrotka:
----------------------
----------------------
------------5---------
------------5-5-------
-3-.......--3-5-------
--------------3-------
koniec;
---------------------------------------------------
---------------------------------------------------
---------------------------------------------------
---------------------------------------------------
--5555-5555555555-6666-6666666666-5555-555555555---
--3333-3333333333-4444-4444444444-3333-333333333---

Dodaj komentarz ...i/lub link do filmiku video

Zaloguj się do serwisu
Wszelkie materiały i wypowiedzi zamieszczone na www.chords.pl są własnością ich autorów.