Zacznij systematycznie uczyć się grać na gitarze razem ze stroną Moja nauka - będziesz miał/miała do niej dostęp po zalogowaniu się w serwisie

Requiem - Hunter

Opracował -a: petlica,
Dodał -a: petlica,
Redaktor: petlica,
Data publikacji: 2011-05-06 11:26
 
Moja nauka


Ups, problem :-/
Zaloguj się Mój śpiewnik
Riff 1

|------------------------------------------------|
|------------------------------------------------|
|------------------------------------------------|
|------------------------------------------------|
|-2-2-2-2-2---2-2-2-2-2---2-2-2-2-2---0-0-0-0-0--|
|-0-0-0-0-0---0-0-0-0-0---3-3-3-3-3---2-2-2-2-2--|
  pm.....     pm.....     pm.....     pm.....



|------------------------------------------------|
|------------------------------------------------|
|------------------------------------------------|
|-------------------------4-4-4-4-4---4-4-4-4-4--|
|-2-2-2-2-2---3-3-3-3-3---2-2-2-2-2---2-2-2-2-2--|
|-0-0-0-0-0---5-5-5-5-5--------------------------|
  pm.....     pm.....     pm.....     pm.....


|------------------------------------------------|
|------------------------------------------------|
|------------------------------------------------|
|------------------------------------------------|
|-2-2-2-2-2---2-2-2-2-2---3-3-3-3-3---2-2-2-2-2--|
|-3-3-3-3-3---3-3-3-3-3---5-5-5-5-5---3-3-3-3-3--|
  pm.....     pm.....     pm.....     pm.....



|------------------------------------------------|
|------------------------------------------------|
|------------------------------------------------|
|------------------------------------------------|
|-0-0-0-0-0---0-0-0-0-0---3-3-3-3-3---2-2-2-2-2--|
|-2-2-2-2-2---2-2-2-2-2---3-3-3-3-3---2-2-2-2-2--|
  pm.....     pm.....     pm.....     pm.....

Riff 2

|-----------------------------|-------------------|---------------------|-----------------------|
|-----------------------------|-------------------|---------------------|-----------------------|
|-----------------------------|-------------------|---------------------|-----------------------|
|--5-5-5--4-4-4----4-4-4/5----|--5-5-5--4-4-4--4--|---------------------|-----------------------|
|--7-7-7--6-6-6----6-6-6/7----|--7-7-7--6-6-6-----|-----3-3-3-0-2-3-2---|-----3-3-3-0-2-3-2-----|
|--0-0-0----------------------|--0-0-0------------|-0-0-3-3-3-0-2-3-0---|-0-0-3-3-3-0-2-3-0-----|
|                             |                   | pm.............     | pm.............       |
|Guitar_2                     |                   |                     |                       |
|-----------------------------|-------------------|---------------------|-----------------------|
|-----------------------------|-------------------|---------------------|-----------------------|
|-----------------------------|-------------------|-----9-9-9--8-9------|-----9-9-9--11p9p8-9---|
|--9-9-9--7-7-7---10-9-7-9-7--|--9-9-9--7-7-7-----|---------------------|-----------------------|
|-----------------------------|-------------------|---------------------|-----------------------|
|-----------------------------|-------------------|---------------------|-----------------------|


Riff 3A

|------------------------|------------------|------------------------------------------------|
|------------------------|------------------|------------------------------------------------|
|------------------------|------------------|------------------------------------------------|
|--5-5-5-4-4-4--4-4-4/5--|--5-5-5-4-4-4--4--|---------9-----------7-----------5-4------------|
|--7-7-7-6-6-6--6-6-6/7--|--7-7-7-6-6-6-----|---------7-----------5-----------3-2---5-4-2----|
|--0-0-0-----------------|--0-0-0-----------|-0-0-0-0-0---0-0-0-0-----0-0-0-0-------3-2-0----|

Riff 3B

|------------------------|------------------|-----------------------------------------------------|
|------------------------|------------------|-----------------------------------------------------|
|------------------------|------------------|-----------------------------------------------------|
|--5-5-5-4-4-4--4-4-4/5--|--5-5-5-4-4-4--4--|---------9-----------9-----------9-------------------|
|--7-7-7-6-6-6--6-6-6/7--|--7-7-7-6-6-6-----|---------7-----------7-----------7-------------------|
|--0-0-0-----------------|--0-0-0-----------|-0-0-0-0-0---0-0-0-0-----0-0-0-0----0-0-0-0---3-2-0--|

Riff 4

|---------------------------------------------------------|
|---------------------------------------------------------|
|---------------------------------------------------------|
|-----------------------2-------2-------2-----------------|
|---2----2----2----2------2-3-2---2-3-2---2-3-2--0-2------|
|---0----0----0----0---------------------------------3-0--|

Dodaj komentarz ...i/lub link do filmiku video

Zaloguj się do serwisu
Wszelkie materiały i wypowiedzi zamieszczone na www.chords.pl są własnością ich autorów.