Zacznij systematycznie uczyć się grać na gitarze razem ze stroną Moja nauka - będziesz miał/miała do niej dostęp po zalogowaniu się w serwisie

Medeis (tab) - Hunter

Opracował -a: rybazmarsa88,
Dodał -a: rybazmarsa88,
Redaktor: Tomek Pietrzkowski,
Data publikacji: 2010-05-27 00:55
 
Moja nauka


Ups, problem :-/
Zaloguj się Mój śpiewnik
wstęp: ( nie jestem go pewien )
-----------0--------------------------------------------------------
-----------5--------------------------------------------------------
---------4----------------------------------------------------------
-----4--4-----------------------------------------------------------
----4--2------------------------------------------------------------
-0-6----------------------------------------------------------------

20s:(wah wah) ( I riff )
-------------------------------------------------------------------
-7-8--8p7----------------------------------------------------------
---------9-7-9p7---------------------------------------------------
----------------9-7-9-(-9-9-9-)------------------------------------
-------------------------------------------------------------------
-------------------------------------------------------------------

zwrotka jak we wstępie..
54s:(wah wah) (4 razy )
-10-12--------------------------------------------------------------
------10-12---------------------------------------------------------
-----------12-9-----------------------------------------------------
--------------------------------------------------------------------
--------------------------------------------------------------------
--------------------------------------------------------------------

Kaktus.. ( riff II )

  |p.m.-|            |p.m.-|
-------------------------------------------------------------------
----------6-6-6-7-4------------------------------------------------
----------5-5-5-6-3------------------------------------------------
-2--------3-3-3-4-1------------------------------------------------
-2-----------------------------------------------------------------
-0-0-0-0-------------0-0-0-----------------------------------------

Chodź dziecino chodź.. ( wah wah, ciekawie brzmi, jak dodamy do tego
mocne wibrato do kazdego dźwięki - dla tych co nie graja na elektrykach
tylko jak ja na akustykach:) )

-10-12----------------------------------------------------------------
------10-12-----------------------------------------------------------
-----------12-9-------------------------------------------------------
----------------------------------------------------------------------
----------------------------------------------------------------------
----------------------------------------------------------------------

Sen.. ( riff III )
------------4-4-2-2-2-2-1-1-1-----------------------4-4-2-2-2-2-1-1-1---
---------------------------4---------------------------------------4----
--3--------------------------3-x-x-3--x-4--x-6--x-3---------------------
--3--------------------------3-x-x-3--x-4--x-6--x-3---------------------
--1-----1-1------------------1-x-x-1--x-2--x-4--x-1---------------------
------------------------------------------------------------------------

-------------------------------------------------------------------
-------------------------------------------------------------------
--3-3b-3-x-x-3-3-3-------------------------------------------------
--3----3-x-x-3-3-3-------------------------------------------------
--1----1-x-x-1-1-1-------------------------------------------------
-------------------------------------------------------------------

teraz wchodzi I riff..

2:08s:  (2x)
---------------------------------------------------------------------
---------------------------------------------------------------------
----7-7-9~~--9h10s12-10~~-9~~----------------------------------------
---------------------------------------------------------------------
-7h9-9---------------------------------------------------------------
---------------------------------------------------------------------

riff II, następnie riff III, z tym, że końcówka inna: ( 3 takt )
-----0s4~~~~-----2s4s6~~---------------------------------------------
---------------------------------------------------------------------
-3-------------------------------------------------------------------
-3-------------------------33333333----------------------------------
-1-------------------------11111111----------------------------------
---------------------------------------------------------------------

2:52s
-17-13-15-13-15-13---------------------------------------------------
---------------------------------------------------------------------
---------------------------------------------------------------------
---------------------------------------------------------------------
---------------------------------------------------------------------
---------------------------------------------------------------------

w międzyczasie wchodzi riff II i III
następnie przejście:
4x |----------p.m.-----------|
--------------------------------------------------------------------
------------------------------3-3-3-3333-3333-3333------------------
------------------------------3-3-3-3333-3333-3333------------------
--2---------------------------3-3-3-3333-3333-3333---2--------------
--2---------------------------1-1-1-1111-1111-1111---2--------------
--0-00-00-00-00-00-00-00-00-0------------------------0--------------

riff I,
i zakonczenie, czyli riff II i III grany razem, później wchodzi jeszcze riff I
koniec:
---------------------------------------------------------------------
-4--4--4--4--4--4----4-~~--------------------------------------------
-3--3--3--3--3--3----3-----------------------------------------------
-1--1--1--1--1--1----1-----------------------------------------------
---------------------------------------------------------------------
---------------------------------------------------------------------

mogą wystąpić niewielkie błędy ale mam nadzieje, że wszystko jest ok:)

Dodaj komentarz ...i/lub link do filmiku video

Zaloguj się do serwisu
Ostatnie komentarze
1.
petlica
2015-11-16 13:18
Całość pół tonu niżej niż standard. Niestety tabulatura chyba nie jest poprawna.
2.
Wojtek Schmidt
2015-11-15 00:06
mam pytanie czy to jest w standardowym strojeniu??
Wszelkie materiały i wypowiedzi zamieszczone na www.chords.pl są własnością ich autorów.