Zacznij systematycznie uczyć się grać na gitarze razem ze stroną Moja nauka - będziesz miał/miała do niej dostęp po zalogowaniu się w serwisie

Easy Rider (taby) - Hunter

Opracował -a: rybazmarsa88,
Dodał -a: rybazmarsa88,
Redaktor: Tomek Pietrzkowski,
Data publikacji: 2010-05-17 00:11
 
Moja nauka


Ups, problem :-/
Zaloguj się Mój śpiewnik
----------------------------------------------------------------------
---------------------------16tr17tr18tr19tr20s0-----------------------
----------------------------------------------------------------------
--2-7b-5-7b----2-7b-5-7b----------------------------------------------
--2---------7--2--------7---------------------------------------------
--0------------0------------------------------------------------------

zwrotka
----------------------------------------------------------------------
----------------------------------------------------------------------
-------------------------------------------------------------444444---
----------------------------------2222222222222222-4444444444444444---
-22222222222222222222222222222222-0000000000000000-2222222222222222---
-00000000000000000000000000000000-------------------------------------


----------------------------------------------------------------------
----------------------------------------------------------------------
----------------------------------------------------------------------
-2222222222222222----------444444444----------------------------------
-0000000000000000-44444444-222222222----------------------------------
------------------22222222--------------------------------------------

easy rider..
----------------------------------------------------------------------
----------------------------------------------------------------------
-----2----------4b-2--2-4~~-------------------------------------------
-2---2-------2------4-------2222222222222222-44444444-7777-4444-2-----
-2---0-00000-2--------------0000000000000000-22222222-5555-2222-2-----
-0-----------0--------------------------------------------------0-----


----------------------------------------------------------------------
----------------------------------------------------------------------
-2---------2----------------------------------------------------------
-2---------2--2-------------------------------------------------------
-0-0-0-0-0-0--2--------5~~--------------------------------------------
--------------0--0-2-4------------------------------------------------

II zwrotka                      dalej jak w poprzednim ref
----------------------------------------------------------------------
----------------------------------------------------------------------
------------------------------------2--4---12s------------------------
---------------------22-22-22-22-xx-2--4---12s------------------------
-22-22-22-22-xx-5~~--00-00-00-00-xx-0--2---12s------------------------
-00-00-00-00-xx-------------------------------------------------------

III zwrotka
-----------------------------------------------------------------------
-----------------------------------------------------------------------
-------------------------------------2-4-------------------------------
-21s---------------------------------2-4-------------------------------
-21s---------------------------------0-2-------------------------------
-21s-00-0000-00-0000-00-0000-00-0000-----------------------------------

ref                             dalej ref nornmalnie
-----------------------------------------------------------------------
-----------------------------------------------------------------------
-----------------------------------------------------------------------
-22222222222222----------4---------------------------------------------
-00000000000000-4444444--4---------------------------------------------
----------------2222222--2---------------------------------------------

solidny dom......                       refren na koncu slide
---------------------------------------------------------------------
---------------------------------------------------------------------
---------------------------------------------------------------------
---------------------------------------------------------------------
---------------------------------------------------------------------
---------------------------------------------------------------------

                                                ref
---------------------------------------------------------------------
---------------------------------------------------------------------
---------------------------------------------------------------------
---------------------22-22-22----------------------------------------
-22-22-22--22-22-22--00-00-00-22-22-22-------------------------------
-00-00-00--00-00-00-----------00-00-00-------------------------------


---------------------------------------------------------------------
---------------------------------------------------------------------
-2----------4--------2-----------------------------------------------
-2-----4----4----2---2---2--22---------------------------------------
-0-----4----2----2---0---2--22---------------------------------------
-------2---------0-------0--00---------------------------------------

Dodaj komentarz ...i/lub link do filmiku video

Zaloguj się do serwisu
Wszelkie materiały i wypowiedzi zamieszczone na www.chords.pl są własnością ich autorów.