Zacznij systematycznie uczyć się grać na gitarze razem ze stroną Moja nauka - będziesz miał/miała do niej dostęp po zalogowaniu się w serwisie

Freedom - Hunter

Opracował -a: Ponury,
Data publikacji: 2005-05-01 00:03
 
Moja nauka


Ups, problem :-/
Zaloguj się Mój śpiewnik
Wstęp 4x

E----------------------------------------------|
H----------------------------------------------|
G----------------------------------------------|
D-------5-------4-------2-------4-4/5----------|
A-2-2-2-7-2-2-2-5-2-2-2-3-2-2-2-5-5------------|
E-0-0-0---0-0-0---0-0-0---0-0-0----------------|

E-------------------------------------------------------------------|
H-------------------------------------------------------------------|
G-------------------------------------------------------------------|
D-----------5----------7----------9-----------7----------5--------7-|
A-----2-2-2-7----2-2-2-9----2-2-2-10----2-2-2-9----2-2-2-7----2-2-9-|
E-0-0-0-0-0--0-0-0-0-0--0-0-0-0-0---0-0-0-0-0--0-0-0-0-0--0-0-0-0---|

E---------------------|
H---------------------|
G---------------------|
D-----------9---------|
A-----2-2-2-10----2---|
E-0-0-0-0-0---0-0-0---|

Zwrotka 4x Bez przestera

E-------------------|
H-----0-----0--0----|
G----0-0---5--4--0--|
D---4---4-7--5--4---|
A--7----------------|
E-0-----------------|

Zakończenie zwrotki

E------------0---------|
H-----0---------0--4---|
G----0-0---5---4-------|
D---4---4-7---5--5-----|
A--7-------------------|
E-0--------------------|

Przester 4 razy i wejście na zwrotke

E---------------------------------|
H---------------------------------|
G-------------------------5-5-5-5-|
D---------5-5-5-5-4-4-4-4-7-7-7-7-|
A-2-2-2-2-7-7-7-7-6-6-6-6---------|
E-0-0-0-0-------------------------|

E-------------------------------------|
H-------------------------------------|
G-------------------------------------|
D-------4---5---7---------4---5---7---|
A-2-----6---7---9----2----6---7---9---|
E-0-0-0--0-0-0-0-0-0-0-0-0-0-0-0-0----|


I tu mamy refren... :)

E---------------------------------------------------------------|
H---------------------------------------------------------------|
G---------------------------------------------------------------|
D------------1---4-5-----4---5---7------5-4-4---------7-7-7-7---|
A-3--4-4-4-2-2--3---2----6---7---9----5-3-2-2-2-2-2-2-9-9-9-9---|
E-5--2-2-2-0-2-2----0-0-0-0-0-0-0-0-0-3-------0-0-0-0-----------|

E----------------------------------------------------------------|
H----------------------------------------------------------------|
G----------------------------------------------------------------|
D-4-4-4-4-5-5-5-5-----------1-----4-5------4---5---7----2-1-0-1--|
A-6-6-6-6-7-7-7-7-5-4-4-4-2-2---3-----2----6---7---9----3-2-0-2--|
E-----------------3-2-2-2-0-2-2-------0-0-0-0-0-0-0-0-0-3-2-0-2--|



Utwór może sprawi trudności ale jest banalnie prosty... :)
Najleiej grac wsłuchując się w kawałek...

Dodaj komentarz ...i/lub link do filmiku video

Zaloguj się do serwisu
Wszelkie materiały i wypowiedzi zamieszczone na www.chords.pl są własnością ich autorów.