Zacznij systematycznie uczyć się grać na gitarze razem ze stroną Moja nauka - będziesz miał/miała do niej dostęp po zalogowaniu się w serwisie

Żniwiarze Umysłów (taby) - Hunter

Opracował -a: rybazmarsa88,
Dodał -a: rybazmarsa88,
Redaktor: Tomek Pietrzkowski,
Data publikacji: 2010-05-17 00:11
 
Moja nauka


Ups, problem :-/
Zaloguj się Mój śpiewnik
wstęp, zwrotki                                  Nie wątpli nikt..
---------------------------------------------------------------------
---------------------------------------------------------------------
---------------------------------------------------------------------
---------------------------------------------------------------------
-------8------6-----9------------------------------------------------
--6-6-6--6-6-6--7-6-------------------7-7-7----888-7-77777-8/--------
-----------------------5555555555555555-5-5----666-5-55555-6---------

---------------------------------------------------------------------
---------------------------------------------------------------------
---------------------------------------------------------------------
---------------------------------------------------------------------
---------------------------------------------------------------------
---------------------------------------------------------------------
--5-5-5-5---6-6-6-5---5-5-5-5-6---0-0-0-0-6-0-0--00-6--0-0--0-06-----

---------------------------------------------------------------------
---------------------------------------------------------------------
---------------------------------------------------------------------
---------------------------------------------------------------------
---------8----------8----------7-------------------------------------
---------8----------8----------7-------------------------------------
-0-0-0-0-6--7-6-5-0-6--6-5-4-0-5--3-2-1-0----------------------------
                        mostek:
---------------------------------------------------------------------
-----------------------16-14--------13--11-2x------------------------
--------------------15-------13--12------------8---------------------
-------------------------------------------------9-------------------
---------------------------------------------------------------------
-5-----7-3---3-6-----------------------------------------------------
-3-x-x-5-5---5-8-----------------------------------------------------

---------------------------------------------------------------------
---------------------------------------------------------------------
---------------------------------------------------------------------
---------------------------------------------------------------------
---------------------------------------------------------------------
-3----7--------------------------------------------------------------
-5-x-x5-------------------------------------------------------------

Tab moze byc trochę niedokładny ale lepsze to niż nic:P

Dodaj komentarz ...i/lub link do filmiku video

Zaloguj się do serwisu
Wszelkie materiały i wypowiedzi zamieszczone na www.chords.pl są własnością ich autorów.