Zacznij systematycznie uczyć się grać na gitarze razem ze stroną Moja nauka - będziesz miał/miała do niej dostęp po zalogowaniu się w serwisie

Lorr (tab) - Hunter

Opracował -a: rybazmarsa88,
Dodał -a: rybazmarsa88,
Redaktor: Tomek Pietrzkowski,
Data publikacji: 2010-05-26 08:42
 
Moja nauka


Ups, problem :-/
Zaloguj się Mój śpiewnik
4 razy wstęp, za drugim,trzecim i czwartym razem pomijamy 10s12,
gdzie czwaty raz konczymy na strunie A 12 próg:
-----------------------------------------------------------
-----------------------------------------------------------
----------------------------------12-----------------------
-12-14-15-----12-14-15----12-14-15--15-14--------10s12-----
---------12-----------13-----------------15-12-15-----12s0-
-----------------------------------------------------------

|| powt. 2 razy                  ||
----------------------------------------------------------------------
-----------13---------------------------------------------------------
-14p12-14----14--------------14---------------------------------------
------------------15p14-15-----14------12p10-12-14-15-14-----10s12----
--------------------------------------------------------15-12-----12--
----------------------------------------------------------------------

--------------------------------------------------------
--------------------------------------------------------
--------------------------------------------------------
-12p10-12-14-15-14-15-17-~15h17tr~----------------------
--------------------------------------------------------
--------------------------------------------------------

refren jak we wstępie

Dodaj komentarz ...i/lub link do filmiku video

Zaloguj się do serwisu
Wszelkie materiały i wypowiedzi zamieszczone na www.chords.pl są własnością ich autorów.