Zacznij systematycznie uczyć się grać na gitarze razem ze stroną Moja nauka - będziesz miał/miała do niej dostęp po zalogowaniu się w serwisie

Wyznawcy (tab) - Hunter

Opracował -a: Wilku,
Dodał -a: Wilku,
Redaktor: Seba,
Data publikacji: 2014-06-17 17:19
 
Moja nauka


Ups, problem :-/
Zaloguj się Mój śpiewnik
Hunter - Wyznawcy

Drop - C

Intro piosenki gramy na szóstej strunie, na progu drugim.

Główny riff (na początku):

D|------------------------------------
A|------------------------------------
F|------------------------------------
C|------------------------------------   x4
G|------------------------------------
C|-0-3-0-5-0-0-7-0-0-8-0-0-5\7--------


Riff #2

D|------------------------------------
A|------------------------------------
F|------------------------------------
C|------------------------------------
G|-0-0--0/3--2/2--2/5-6---------------
C|-0-0--0/3--2/2--2/5-6---------------

Główny riff z drugim gramy na przemian w algorytmie 2:1. 
Czyli 2 razy główny i raz drugi. Gramy to do momentu pojawienia się kolejnego riffu.

Riff #3

D|------------------------------------
A|------------------------------------
F|------------------------------------
C|------------------------------------
G|-3-0-0-5-3-5/7-5-7/8-7-5------------
C|-3-0-0-5-3-5/7-5-7/8-7-5------------

Po tym gramy jeszcze 2 razy główny riff.

A teraz refren:

D|------------------------------------
A|------------------------------------
F|----------7-------------------------
C|----------7-------------------------
G|-5-8-7--0-5-------------------------
C|-5-8-7--0---------------------------

Powyższą frazę gramy 3 razy, a po trzecim razie dodajemy to co poniżej.

D|------------------------------------
A|------------------------------------
F|------------------------------------
C|------------------------------------
G|-5--1-3--0--------------------------
C|-5--1-3--0--------------------------
Dodał: Wilku, 2014-06-17 17:20
Opracowania video z komentarzy

Dodaj komentarz ...i/lub link do filmiku video

Zaloguj się do serwisu
Wszelkie materiały i wypowiedzi zamieszczone na www.chords.pl są własnością ich autorów.