Zacznij systematycznie uczyć się grać na gitarze razem ze stroną Moja nauka - będziesz miał/miała do niej dostęp po zalogowaniu się w serwisie

Kostian (tab) - Hunter

Opracował -a: petlica,
Dodał -a: petlica,
Redaktor: petlica,
Pochodzi z: http://www.chords.pl/
Data publikacji: 2013-01-22 08:35
 
Moja nauka


Ups, problem :-/
Zaloguj się Mój śpiewnik
drop-C

  Riff A
D|---------------------|------------------------|
A|---------------------|------------------------|
F|-5/7-----7-----------|--------------3-3-------|
D|-5/7-7-5-7-----10-10-|-3h5-----5----3-3---3-3-|
G|-3/5-5-3-5------8--7-|-3h5-5-3-5----1-1---3-3-|
C|------------0--------|-3h5-5-3-5----------3-3-|
       pm.                   pm.     pm    pm


D|---------------------|------------------------------------------|
A|---------------------|------------------------------------------|
F|-5/7-----7-----------|------------------------------------------|
D|-5/7-7-5-7-----10-10-|-3h5-----5----3-------------5-------------|
G|-3/5-5-3-5------8--7-|-3h5-5-3-5----1-------------3-------------|
C|------------0--------|-3h5-5-3-5-------3--3b(5)~-----3b(5)--3~--|
       pm.                   pm.         PH.......     PH........


  Riff B
D|-------------|--------------|--------------|---------------|
A|-------------|--------------|--------------|---------------|
F|-------------|--------------|--------------|---------------|
D|-7----x8-----|-8----x8------|-5----x8------|-5-----x8------|
G|-5-----------|-5------------|-5------------|-5-------------|
C|-------------|--------------|--------------|---------------|
   pm........................................................

  Bridge
D|-------------|--------------|-------------|-------------|
A|-------------|--------------|-------------|-------------|
F|-------------|--------------|-------------|-------------|
D|--5h7-----7/-|--------------|--5h7-----7/-|-5-5---------|
G|--5h7-7-5-7/-|--------------|--5h7-7-5-7/-|-3-3---5-5---|
C|--5h7-7-5-7/-|--------------|--5h7-7-5-7/-|-------5-5---|
        pm.                          pm.

D|-------------|--------------|-------------|-------------|
A|-------------|--------------|-------------|-------------|
F|-------------|--------------|-------------|-------------|
D|--5h7-----7/-|--------------|--5h7-----7/-|-5-----------|
G|--5h7-7-5-7/-|--------------|--5h7-7-5-7/-|-3---1--1--1-|
C|--5h7-7-5-7/-|--------------|--5h7-7-5-7/-|-----1--1--1-|
        pm.                          pm.          pm.....

D|-------------|--------------|-------------|-------------|
A|-------------|--------------|-------------|-------------|
F|-------------|--------------|-------------|-------------|
D|--5h7-----7/-|--------------|--5h7-----7/-|-5-5---------|
G|--5h7-7-5-7/-|--------------|--5h7-7-5-7/-|-3-3---3-3---|
C|--5h7-7-5-7/-|--------------|--5h7-7-5-7/-|-------3-3---|
        pm.                          pm.

D|-------------|--------------|-------------|-----------------------------|
A|-------------|--------------|-------------|-----------------------------|
F|-------------|--------------|-------------|-----------------------------|
D|--5h7-----7/-|--------------|--5h7-----7/-|-3-------------5-------------|
G|--5h7-7-5-7/-|--------------|--5h7-7-5-7/-|-1-------------3-------------|
C|--5h7-7-5-7/-|--------------|--5h7-7-5-7/-|----3--3b(5)~-----3b(5)--3~--|
        pm.                          pm.         PH.......     PH........


pozdr
petlica

Dodaj komentarz ...i/lub link do filmiku video

Zaloguj się do serwisu
Ostatnie komentarze
1.
#Komor
2013-01-25 23:02
Dzięki bardzo, próbowałem to rozszyfrować, byłem blisko ;) Dzięki wielkie ;)
Wszelkie materiały i wypowiedzi zamieszczone na www.chords.pl są własnością ich autorów.