Zacznij systematycznie uczyć się grać na gitarze razem ze stroną Moja nauka - będziesz miał/miała do niej dostęp po zalogowaniu się w serwisie

Samael - Hunter

Opracował -a: petlica,
Dodał -a: petlica,
Redaktor: petlica,
Pochodzi z: http://www.chords.pl/
Data publikacji: 2013-02-01 08:52
 
Moja nauka


Ups, problem :-/
Zaloguj się Mój śpiewnik
F|-----------------|-----------------|-----------------|-----------------|
C|-----------------|-----------------|-----------------|-----------------|
G|-----------------|-----------------|-----------------|-----------------|
C|-0-0-0-0-0-0-0-0-|-0-0-0-0-0-0-0-0-|-0-0-0-0-0-0-0-0-|-0-0-0-0-0-0-0-0-|
   ^ ^
                                                                       x4
F|-----------------|-----------------|-----------------|-----------------|
C|-----------------|-----3-----5-----|-----------------|-----------------|
G|-----------------|-5-5---5-5-----3-|-----------------|-----------------|
C|-0-0-0-0-0-0-0-0-|------------3----|-0-0-0-0-0-0-0-0-|-0-0-0-0-0-0-0-0-|
   ^ ^                                 ^ ^
                                   x3
F|-----------------|-----------------|-----------------|-----------------|
C|-----------------|-----------------|-----------------|-----------------|
G|-1-1-1-0-0-0-----|-----------------|-1-1-1-0-0-0-----|-----------------|
C|-------------5-5-|-0-0-0-0-0-0-0-0-|-------------5-5-|-3-3-3-3-3-3-3-3-|


F|-----------------|-----------------|-----------------|-----------------|
C|-----------------|-----------------|-----------------|-----------------|
G|-----------------|-----------------|-----------------|-----------------|
C|-5-5-5-5-5-5-5-5-|-3-3-3-3-3-3-3-3-|-2-2-2-2-1-1-1-1-|-0-0-0-0-0-0-0-0-|
                                                         ^ ^

F|-----------------|-----------------|
C|-----------------|-----------------|
G|-----------------|-----------------|
C|-0-0-0-0-0-0-0-0-|-0-0-0-0-0-0-0-0-|



D|-----------------|-----------------|-----------------|-----------------|
A|-----------------|-----------------|-----------------|-----------------|
F|-----------------|-----------------|-----------------|-----------------|
C|-----------------|-----------------|-----------------|-----------------|
G|-1-1-1-0-0-0-----|-----------------|-1-1-1-0-0-0-----|-0-0-0-0-0-0-0-0-|
C|-------------5-5-|-0-0-0-0-0-0-0-0-|-------------5-5-|-3-3-3-3-3-3-3-3-|


D|-----------------|-----------------|-----------------|
A|-----------------|-----------------|-----------------|
F|-----------------|-----------------|-----------------|
C|-----------------|-----------------|-3/2-----2/1-----|
G|-2-2-2-2-2-2-2-2-|-3-3-3-3-3-3-3-3-|-3/2-----2/1-----|
C|-5-5-5-5-5-5-5-5-|-3-3-3-3-3-3-3-3-|-3/2-2-2-2/1-1-1-|



  Ref
D|--------------------------|--------------------------|
A|--------------------------|--------------------------|
F|--------------------------|--------------------------|
C|-1p0---0-----3-3-3-0-1p0--|-1p0---0-----3-3-3-0-1p0--|
G|-1p0---0-----3-3-3-0-1p0--|-1p0---0-----3-3-3-0-1p0--|
C|-1p0---0-----3-3-3-0-1p0--|-1p0---0-----3-3-3-0-1p0--|



D|--------------------------|--------------------------|
A|-19-----------------------|--------------------------|
F|-19-----------------------|--------------------------|
C|-19-0--0-----3-3-3-0-1p0--|-1p0---0-----3-3-3-0-1p0--|
G|----0--0-----3-3-3-0-1p0--|-1p0---0-----3-3-3-0-1p0--|
C|----0--0-----3-3-3-0-1p0--|-1p0---0-----3-3-3-0-1p0--|
   NH.

D|-----------------|-----------------|-----------------|-----------------|
A|-----------------|-----------------|-----------------|-----------------|
F|-----------------|-----------------|-----------------|-----------------|
C|-----------------|-----3-----5-----|-----------------|-----3-----5-----|
G|-----------------|-5-5---5-5-----3-|-----------------|-5-5---5-5-----3-|
C|-----------------|-------------3---|-0-0-------------|-------------3---|
                                       ^ ^

D|-----------------|-----------------|-----------------|-----------------|
A|-----------------|-----------------|-----------------|-----------------|
F|-----------------|-----------------|-----------------|-----------------|
C|-----------------|-----3-----5-----|-----------------|-----3-----5-----|
G|-----------------|-5-5---5-5-----3-|-----------------|-5-5---5-5-----3-|
C|-0-0-0-0-0-0-0-0-|------------3----|-0-0-0-0-0-0-0-0-|------------3----|
   ^ ^                                 ^ ^



D|----11----11----------14----|----11----11----------14----|
A|-15----15----15-15/18----18-|-15----15----15-15/18----18-|
F|----------------------------|----------------------------|
C|----------------------------|----------------------------|
G|----------------------------|----------------------------|
C|----------------------------|----------------------------|


D|-----------------|-----------------|-----------------|-----------------|
A|-----------------|-----------------|-----------------|-----------------|
F|-----------------|-----------------|-----------------|-----------------|
C|-----------------|-----------------|-----------------|-----------------|
G|-3-5-5-5-3-5-5-5-|-3-5-5-5-3-5-5-5-|-3-5-5-5-3-5-5-5-|-3-5-5-5-3-5-5-5-|
C|-----------------|-----------------|-----------------|-----------------|


End
D|--------------------|--------------------|
A|--------------------|--------------------|
F|--------------------|--------------------|
C|-1p0--0-----1p0--0--|-1p0--0-----1p0--0--|
G|-1p0--0-----1p0--0--|-1p0--0-----1p0--0--|
C|-1p0--0-----1p0--0--|-1p0--0-----1p0--0--|

pozdr
petlica

Dodaj komentarz ...i/lub link do filmiku video

Zaloguj się do serwisu
Ostatnie komentarze
1.
Shimitzu Ryouri
2013-03-04 18:48
Jest ktoś w stanie napisać całe taby dla bassu? bo potem brzmi to inaczej niż z samego intra. Dzięki. :)
Wszelkie materiały i wypowiedzi zamieszczone na www.chords.pl są własnością ich autorów.