Zacznij systematycznie uczyć się grać na gitarze razem ze stroną Moja nauka - będziesz miał/miała do niej dostęp po zalogowaniu się w serwisie

O wolności (tab) - Hunter

Opracował -a: petlica,
Dodał -a: petlica,
Redaktor: petlica,
Pochodzi z: http://www.chords.pl/
Data publikacji: 2013-01-16 11:35
 
Moja nauka


Ups, problem :-/
Zaloguj się Mój śpiewnik
Intro-Riff A
D|--------1-----0-----|--------1-----0-----|
A|-----3-----3--------|-----3-----3--------|
F|-0h2----------------|-0h2----------------|
D|-0------------------|-0------------------|
G|--------------------|--------------------|
C|--------------------|--------------------|

  Verse-Riff B                           x2
D|-------0------------|-------0---------0--|
A|-----6---6----------|-----6---------6----|
F|---7-------7--------|---5---------3------|
D|-0------------------|-3---------5--------|
G|--------------------|--------------------|
C|--------------------|--------------------|


D|-------0------------|--------------------|
A|-----6---6----------|-------3---------3--|
F|---7-------7--------|-----0---------0----|
D|-0------------------|---3---------3------|
G|--------------------|-1---------0--------|
C|--------------------|--------------------|



D|-------0------------|-------0---------0--|
A|-----6---6----------|-----6---------6----|
F|---7-------7--------|---5---------3------|
D|-0------------------|-3---------5--------|
G|--------------------|--------------------|
C|--------------------|--------------------|


D|-0------------------|-0--0--0--0---------|
A|-5------------------|-6--6--6--5---------|
F|-6------------------|-7--7--7--6---------|
D|-7------------------|-0--0--0--7---------|
G|-0------------------|----------0---------|
C|--------------------|--------------------|

  Ref- 1st & 3rd                      x3
D||---------0-------|-------1-0-------|
A||-------1---1-----|-----3-----3-----|
F||-----0-------0---|---2---------2---|
D||---2-----------2-|-0-------------0-|
G||-3---------------|-----------------|
C||-----------------|-----------------|


D||-------------|-----------1-----0--|--------1-----0--|
A||-1------3----|--------3-----3-----|-----3-----3-----|
F||-0------3----|----0h2-------------|-0h2-------------|
D||-2------3----|-5--0---------------|-0---------------|
G||-3------1----|-5------------------|-----------------|
C||-------------|-5------------------|-----------------|



  Ref - 2nd                      x3
D||---------0-------|-------1-0-------|
A||-------1---1-----|-----3-----3-----|
F||-----0-------0---|---2---------2---|
D||---2-----------2-|-0-------------0-|
G||-3---------------|-----------------|
C||-----------------|-----------------|


D|------------------|-----------------|
A|-2------/---------|-2------/--------|
F|-2-----/----------|-2-----/---------|
D|-2----/-----------|-2----/----------|
G|-0---/------------|-0---/-----------|
C|------------------|-----------------|


pozdr
petlica

Dodaj komentarz ...i/lub link do filmiku video

Zaloguj się do serwisu
Ostatnie komentarze
1.
lllukasz111
2013-01-24 21:33
dzięki wielkie :) jak byś jeszcze do "Inni" napisał tab, był bym bardzo wdzięczny
2.
Damian Dziak
2013-01-18 19:12
Mam jedno pytanie jak zagrać to: 0h2?
Wszelkie materiały i wypowiedzi zamieszczone na www.chords.pl są własnością ich autorów.