Zacznij systematycznie uczyć się grać na gitarze razem ze stroną Moja nauka - będziesz miał/miała do niej dostęp po zalogowaniu się w serwisie

NieWolnOść - Hunter

Opracował -a: rybazmarsa88,
Dodał -a: rybazmarsa88,
Redaktor: Tomek Pietrzkowski,
Pochodzi z: http://www.chords.pl/
Data publikacji: 2016-11-21 08:51
 
Moja nauka


Ups, problem :-/
Zaloguj się Mój śpiewnik
Dropped C
Zwrotka:                                     ósemkami.......
------------------------------------------------------------------------
------------------------------------------------------------------------
------------------------------------------------------------------------
-------0------0------8------7------0------0-------------------8-7-------
-------0------0------8------7------0------0-------------------8-7-------
--0000-0-0000-0-8888-8-7777-7-0000-0-0000-0--11-9-8-7-6-5-6-7-8-7-------

--------------------------------------------------------------------------
--------------------------------------------------------------------------
--------------------------------------------------------------------------
-------0------0------8------7------0------0---------------0----0----0---0-
-------0------0------8------7------0------0---------------0----0----0---0-
--0000-0-0000-0-8888-8-7777-7-0000-0-0000-0--11-9-8-7-6-5-0-00-0-00-0-0-0-

Refren:
------------------------------------------------------------------------------
------------------------------------------------------------------------------
------------------------------------------------------------------------------
--0----x-0-x----9s11----0----x-0--0-3-3-x-3--7-777-7-888-555s0--7777-8-10-7-8-
--0--0-x-0-x--0-9s11----0--0-x-0--0-3-3-x-3--7------------------7777-8-10-7-8-
--0--0-x-0-x--0-9s11----0--0-x-0--0-3-3-x-3--7------------------7777-8-10-7-8-
                                                        i zwrotka
-------------------------------------------------------------------------
-------------------------------------------------------------------------
-------------------------------------------------------------------------
--0----x-0-x----9s11----0----x-0--0-3-3-x-3--6-7-1-2-------0------0------
--0--0-x-0-x--0-9s11----0--0-x-0--0-3-3-x-3--6-7-1-2-------0------0------
--0--0-x-0-x--0-9s11----0--0-x-0--0-3-3-x-3--6-7-1-2--0000-0-0000-0------
Niosą Cię, na sztandarach niosą Cię... (nie jestem pewien)
-----------------------------------------------------------------------------
-----------------------------------------------------------------------------
-----------------------------------------------------------------------------
-----------------------------------------55-x-5-----------55-x-5-------------
-00-x-0-x-0-5p4-----00-x-0-7p6-------5~~-55-x-5-s7s8-7s5--55-x-5-s7s8-7s5----
-00-x-0-x-0----5~~--00-x-0----7~~-7p5----55-x-5-----------55-x-5-------------

Za drugim razem zakończenie jak po drugim wersie refrenu.
Do końca grane jak z zwrotce, na końcu wszystko grane trójdźwiękami.

Dodaj komentarz ...i/lub link do filmiku video

Zaloguj się do serwisu
Wszelkie materiały i wypowiedzi zamieszczone na www.chords.pl są własnością ich autorów.