Zacznij systematycznie uczyć się grać na gitarze razem ze stroną Moja nauka - będziesz miał/miała do niej dostęp po zalogowaniu się w serwisie

Trumian Show - Hunter

Opracował -a: rufus,
Dodał -a: rufus,
Redaktor: Seba,
Data publikacji: 2012-12-17 16:22
 
Moja nauka


Ups, problem :-/
Zaloguj się Mój śpiewnik
strój cały ton w dół e=d

itro i zwrotka:
D---------------------------------------
A--1--3-3----------1---3-3--------------
F--0--2-2----------0---2-2--------------
C--0--0-0--0----0--0---0-0----0----0----
G---------------------------------------
D---------------------------------------


ostanie słowa....
D------------------------------------------------------------------
A---------------------------2-----2--2-----------------------------
F--3------3--3--2-----2--2--0-----0--2-7----7-9-10---3------3-2----
C--3------3--3--2-----2--2--2-----2--2-7----7-9-10---3------3-2----
G--1------1--1--0-----0--0--0-----0--0-5----5-7-8----1------1-0----
D------------------------------------------------------------------
Dodał: rufus, 2012-12-17 16:22
Opracowania video z komentarzy

Dodaj komentarz ...i/lub link do filmiku video

Zaloguj się do serwisu
Ostatnie komentarze
1.
wlepo
2012-12-26 16:13
Sorka za spam... Zapomniałem o Palm Mutingu podczas uderzania pojedynczej struny. D-------------------------------------- A-------------------------------------- F--5H7-7--------5H7-7------------------ C--5H7-7--------5H7-7------------------ G--5---5--5--5--5---5--5--5------------ C-------------------------------------- . . . . P.M.
2.
wlepo
2012-12-26 16:08
Zmieniłbym to intro D-------------------------------------- A-------------------------------------- F--5H7-7--------5H7-7------------------ C--5H7-7--------5H7-7------------------ G--5---5--5--5--5---5--5--5------------ C--------------------------------------
3.
gidam
2012-12-18 21:08
Dzięki jesteś wielki
Wszelkie materiały i wypowiedzi zamieszczone na www.chords.pl są własnością ich autorów.