Zacznij systematycznie uczyć się grać na gitarze razem ze stroną Moja nauka - będziesz miał/miała do niej dostęp po zalogowaniu się w serwisie

Easy Rider - Hunter

Opracował -a: petlica,
Dodał -a: petlica,
Redaktor: petlica,
Pochodzi z: http://www.chords.pl
Data publikacji: 2011-05-06 11:26
 
Moja nauka


Ups, problem :-/
Zaloguj się Mój śpiewnik
Intro

E|--------------------------------|---------------------------|
B|------------2b(3)r(2)-0-2-0-----|---------------------------|
G|------------2b(3)r(2)-0-2-0-----|---------------------------|
D|-2--------------------------2-0-|-2-------------------------|
A|-2------------------------------|-2-------------------------|
E|-0------------------------------|-0------------(3)/(10)\(0)-|
                                                 long slide

E|--------------------------------|---------------------------|
B|------------2b(3)r(2)-0-2-0-----|---------------------------|
G|------------2b(3)r(2)-0-2-0-----|---------------------------|
D|-2--------------------------2-0-|-2-------------------------|
A|-2------------------------------|-2-------------------------|
E|-0------------------------------|-0-------------------0/10~-|


Verse 1

E|-----------------|-----------------|-----------------|-----------------|
B|-----------------|-----------------|-----------------|-----------------|
G|-----------------|-----------------|-----------------|-----------------|
D|-----------------|-----------------|-----------------|-----------------|
A|-2-2-2-2-2-2-2-2-|-2-2-2-2-2-2-2-2-|-2-2-2-2-2-2-2-2-|-2-2-2-2-2-2-2-2-|
E|-0-0-0-0-0-0-0-0-|-0-0-0-0-0-0-0-0-|-0-0-0-0-0-0-0-0-|-0-0-0-0-0-0-0-0-|
   pm...................................................................



E|-----------------|-----------------|-----------------|-----------------|
B|-----------------|-----------------|-----------------|-----------------|
G|-----------------|-----------------|-----------------|-4-4-4-4-4-4-4-4-|
D|-2-2-2-2-2-2-2-2-|-2-2-2-2-2-2-2-2-|-4-4-4-4-4-4-4-4-|-4-4-4-4-4-4-4-4-|
A|-0-0-0-0-0-0-0-0-|-0-0-0-0-0-0-0-0-|-2-2-2-2-2-2-2-2-|-2-2-2-2-2-2-2-2-|
E|-----------------|-----------------|-----------------|-----------------|
   pm.................................................



E|-----------------|-----------------|-----------------|-----------------|
B|-----------------|-----------------|-----------------|-----------------|
G|-2-2-2---2-2-2-2-|-2-2-2---2-2-2-2-|-----------------|-4-4-4-4-4-4-4-4-|
D|-2-2-2---2-2-2-2-|-2-2-2---2-2-2-2-|-4-4-4-4-4-4-4-4-|-4-4-4-4-4-4-4-4-|
A|-0-0-0---0-0-0-0-|-0-0-0---0-0-0-0-|-4-4-4-4-4-4-4-4-|-2-2-2-2-2-2-2-2-|
E|-------3---------|-------3---------|-2-2-2-2-2-2-2-2-|-----------------|




Ref 1/2/3/4

E|------------------------------|---------------------------|
B|------------------------------|---------------------------|
G|--------------2-----2---2-----|---------------------------|
D|-2------------2-----2---2-----|-2---------0h2--0----------|
A|-2------------0-----0---0-----|-2----------------2---0-2~-|
E|-0----------3---------3---3b~-|-0------------------3------|
             pm        pm                        pm.......


E|-----------------|-----------------|-----------------|-----------------|
B|-----------------|-----------------|-----------------|-----------------|
G|-2-2-2---2-2-2-2-|-2-2-2---2-2-2-2-|-----------------|-7-7-7-7-7-4-4-4-|
D|-2-2-2---2-2-2-2-|-2-2-2---2-2-2-2-|-4-4-4-4-4-4-4-4-|-x-x-x-x-x-x-x-x-|
A|-0-0-0---0-0-0-0-|-0-0-0---0-0-0-0-|-2-2-2-2-2-2-2-2-|-5-5-5-5-5-2-2-2-|
E|-------3---------|-------3---------|-----------------|-----------------|



                                 Ref_1.............. Ref_2&4............. Ref_3.............
E|------------------------------|-------------------|-------------------|------------------|
B|------------------------------|-------------------|-------------------|------------------|
G|--------------2-----2---2-----|-------------------|-------------------|------------------|
D|-2------------2-----2---2-----|-2-----------------|-2-----------------|------------------|
A|-2------------0-----0---0-----|-2-----------------|-2--------/x/x/x/x-|-2-2---2-2---2-2--|
E|-0----------3---------3---3b~-|-0-----0-2h3/(10)~-|-0--------/x/x/x/x-|-0-0---0-0---0-0--|
             pm        pm



Verse 2

E|-------------------------------|-------------------------------|
B|---------------------------(3)-|---------------------------(3)-|
G|---------------------------(3)-|---------------------------(3)-|
D|-2-2---2-2---2-2---2-2---------|-2-2---2-2---2-2---2-2---------|
A|-2-2---2-2---2-2---2-2---------|-2-2---2-2---2-2---2-2---------|
E|-0-0---0-0---0-0---0-0-0-0-----|-0-0---0-0---0-0---0-0-0-0-----|
                         pm. NH                           pm. NH


E|-----------------|-----------------|-----------------|-----------------|
B|-----------------|-----------------|-----------------|-----------------|
G|-2---------------|-(2)-------------|-4---------------|-(4)-------------|
D|-2---------------|-(2)-------------|-4---------------|-(4)-------------|
A|-0---------------|-(0)-------------|-2---------------|-(2)-------------|
E|-----------------|-----------------|-----------------|-------(3)/(10)\-|



E|-----------------|-----------------|-----------------|-----------------|
B|-----------------|-----------------|-----------------|-----------------|
G|-2-2-2---2-2-2-2-|-2-2-2---2-2-2-2-|-----------------|-----------------|
D|-2-2-2---2-2-2-2-|-2-2-2---2-2-2-2-|-4-4-4-4-4-4-4-4-|-----------------|
A|-0-0-0---0-0-0-0-|-0-0-0---0-0-0-0-|-4-4-4-4-4-4-4-4-|-2-1-0-----------|
E|-------3---------|-------3---------|-2-2-2-2-2-2-2-2-|-------4-3-2-3-2-|
                                                        pm..............




Verse 3

E|---------------------------|---------------------------|
B|---------------------------|---------------------------|
G|---------------------------|---------------------------|
D|---------------------------|---------------------------|
A|-2---2-2-3-2---2-3-2---2-3-|-2---2-2-3-2---2-3-0---2-3-|
E|-0---0-0-1-0---0-1-0---0-1-|-0---0-0-1-0---0-1-0---0-1-|
  pm....................................................


E|-----------------|-----------------|-----------------|-----------------|
B|-----------------|-----------------|-----------------|-----------------|
G|-2---------------|-(2)-------------|-4---------------|-----------------|
D|-2---------------|-(2)-------------|-4---------------|-----------------|
A|-0---------------|-(0)-------------|-2---------------|-----------------|
E|-0---------------|-(0)-------------|-2---------------|-----------------|



E|-----------------|-----------------|-----------------|-----------------|
B|-----------------|-----------------|-----------------|-----------------|
G|-2-2-2---2-2-2-2-|-2-2-2---2-2-2-2-|-----------------|-----------------|
D|-2-2-2---2-2-2-2-|-2-2-2---2-2-2-2-|-4-4-4-4-4-4-4-4-|-----------------|
A|-0-0-0---0-0-0-0-|-0-0-0---0-0-0-0-|-4-4-4-4-4-4-4-4-|------------/x/x-|
E|-------3---------|-------3---------|-2-2-2-2-2-2-2-2-|------------/x/x-|



Verse 4

  Bas
G|-----------------|-----------------|-----------------|-----------------|
D|-----------------|-----------------|-----------------|-----------------|
A|-----------------|-----------------|-----------------|-----------------|
E|-0-0-0-0-0-0-0-0-|-0-0-0-0-0-0-0-0-|-0-0-0-0-0-0-0-0-|-0-0-0-0-0-0-0-0-|


G|-----------------|-----------------|-----------------|-----------------|
D|-----------------|-----------------|-----------------|-----------------|
A|-0-0-0-0-0-0-0-0-|-0-0-0-0-0-0-0-0-|-2-2-2-2-2-2-2-2-|-2-2-2-2-2-2-2-2-|
E|-----------------|-----------------|-----------------|-----------------|




E|-----------------|-----------------|-----------------|------------------|
B|-----------------|-----------------|-----------------|------------------|
G|-2-2-2---2-2-2-2-|-2-2-2---2-2-2-2-|-----------------|------------------|
D|-2-2-2---2-2-2-2-|-2-2-2---2-2-2-2-|-4-4-4-4-4-4-4-4-|------------------|
A|-0-0-0---0-0-0-0-|-0-0-0---0-0-0-0-|-4-4-4-4-4-4-4-4-|------------------|
E|-------3---------|-------3---------|-2-2-2-2-2-2-2-2-|-3~-0-2-0-2-3-2-1-|



Solo

E|-----------------|-----------------|-----------------|-----------------|
B|-----------------|-----------------|-----------------|-----------------|
G|-----------------|-----------------|-----------------|-----------------|
D|-----------------|-----------------|-----------------|-----------------|
A|-2-2---2-2---2-2-|-----------------|-2-2---2-2---2-2-|-----------------|
E|-0-0---0-0---0-0-|-----------------|-0-0---0-0---0-0-|-----------------|


E|-----------------|-----------------|-----------------|-----------------|
B|-----------------|-----------------|-----------------|-----------------|
G|-----------------|-----------------|-----------------|-----------------|
D|-2-2---2-2---2-2-|-----------------|-----------------|-----------------|
A|-0-0---0-0---0-0-|-----------------|-2-2---2-2---2-2-|-----------------|
E|-----------------|-----------------|-0-0---0-0---0-0-|-----------------|


E|-----------------|-----------------|-----------------|-----------------|
B|-----------------|-----------------|-----------------|-----------------|
G|-2-2-2---2-2-2-2-|-2-2-2---2-2-2-2-|-----------------|-----------------|
D|-2-2-2---2-2-2-2-|-2-2-2---2-2-2-2-|-4-4-4-4-4-4-4-4-|-----------------|
A|-0-0-0---0---0-0-|-0-0-0---0-0-0-0-|-4-4-4-4-4-4-4-4-|-2-1-0---0-------|
E|-------3---------|-------3---------|-2-2-2-2-2-2-2-2-|-------3---3-2-1-|
                                                        pm..............

E|------------------------------|-----------------|
B|------------------------------|-----------------|
G|--------------2-----2---2-----|-----------------|
D|-2------------2-----2---2-----|-2---------------|
A|-2------------0-----0---0-----|-2---------------|
E|-0----------3---------3---3b~-|-0---------------|
             pm        pm


Verse 5


E|-----------------|-----------------|-----------------|-----------------|
B|-----------------|-----------------|-----------------|-----------------|
G|-----------------|-----------------|-----------------|-----------------|
D|-2---------------|-(2)-------------|-(2)-------------|-(2)-------------|
A|-2---------------|-(2)-------------|-(2)-------------|-(2)-------------|
E|-0---------------|-(0)-------------|-(0)-------------|-(0)-------------|


E|-----------------|-----------------|-----------------|-----------------|
B|-----------------|-----------------|-----------------|-----------------|
G|-2---------------|-(2)-------------|-4---------------|-----------------|
D|-2---------------|-(2)-------------|-4---------------|-----------------|
A|-0---------------|-(0)-------------|-2---------------|-----------------|
E|-----------------|-----------------|-----------------|-----------------|



E|-----------------|-----------------|-----------------|-----------------|
B|-----------------|-----------------|-----------------|-----------------|
G|-2-2-2---2-2-2-2-|-2-2-2---2-2-2-2-|-----------------|-----------------|
D|-2-2-2---2-2-2-2-|-2-2-2---2-2-2-2-|-4---------------|-4---------------|
A|-0-0-0---0-0-0-0-|-0-0-0---0-0-0-0-|-4---------------|-2---------------|
E|-------3---------|-------3---------|-2---------------|-----------------|


End

E|-----------------|-----------------|
B|-----------------|-----------------|
G|-----------------|-----------------|
D|-2-2---2-2-------|-(2)-------------|
A|-2-2---2-2-------|-(2)-------------|
E|-0-0---0-0-------|-(0)-------------|

Dodaj komentarz ...i/lub link do filmiku video

Zaloguj się do serwisu
Wszelkie materiały i wypowiedzi zamieszczone na www.chords.pl są własnością ich autorów.