Zacznij systematycznie uczyć się grać na gitarze razem ze stroną Moja nauka - będziesz miał/miała do niej dostęp po zalogowaniu się w serwisie

T.E.L.I... - Hunter

Opracował -a: Morgred aep Morgahad vel Maugrim,
Dodał -a: Morgred aep Morgahad vel Maugrim,
Redaktor: Seba,
Data publikacji: 2011-09-30 21:20
 
Moja nauka


Ups, problem :-/
Zaloguj się Mój śpiewnik
Gitara 1:
D---------------------------------
A---------------------------------
F---------------------------------  4x
C------3-----2-----0-----2-------5
G------------------------------3--
C--0-3---0-2---0-0---0-0---0-0----

Gitara 2:
D--------------------------------               ---
A--------------------------------               ---
F--------------------------------  2x na koncu: ---
C--3-----2----0------2----3------               -0-
G--3-----2----0------2----3------               -0-
C--3-----2----0------2----3------               -0-

Dodaj komentarz ...i/lub link do filmiku video

Zaloguj się do serwisu
Wszelkie materiały i wypowiedzi zamieszczone na www.chords.pl są własnością ich autorów.