Zacznij systematycznie uczyć się grać na gitarze razem ze stroną Moja nauka - będziesz miał/miała do niej dostęp po zalogowaniu się w serwisie

NieRaj - Hunter

Dodał -a: Wojrzenkas, Der Zerstoerer,
Redaktor: Miłosz,
Pochodzi z: http://mysongbook.com
Data publikacji: 2006-02-13 00:10
 
Moja nauka


Ups, problem :-/
Zaloguj się Mój śpiewnik
Początek:
------------------------------
------------------------------
------------------------------
-8--7--0----8--7--0--------6--
-8--7--0----8--7--0--------6--


------------------------------
------------------------------
------------------------------
------------------------------
-8--7--0----2--3--0--2--3--1--
-8--7--0----2--3--0--2--3--1--


Zwrotka:

---------------------------------------------------------------
---------------------------------------------------------------
---------------------------------------------------------------
---------------------------------------------------------------
-0-0--0-0--0-0----0-0--0-0--0-0----0-0--0-0--0-0---------------
-0-0--0-0--0-0----0-0--0-0--0-0----0-0--0-0--0-0---------------

---------------------------------------------------------------
---------------------------------------------------------------
---------------------------------------------------------------
---------------------------------------------------------------
-0-0--0-0--0-0--0-0----0-0--0-0--0-0--0-0----0-0--0-0--0-0--0-0
-0-0--0-0--0-0--0-0----0-0--0-0--0-0--0-0----0-0--0-0--0-0--0-0

Refren 1:
----------------------------------------------------------------
----------------------------------------------------------------
----------------------------------------------------------------
----------------------------------------------------------------
0----0--2--3--0-----0----2--3--5----8--7--5--3--2--3--0-0--0-0--
0----0--2--3--0-----0----2--3--5----8--7--5--3--2--3--0-0--0-0--

3 Zwrotka :
Początek pusty, miejscami:
---------------------------------------------------------------
---------------------------------------------------------------
---------------------------------------------------------------
---------------------------------------------------------------
0-0--0-0--0-0--0-0-----0-0--0-0--0-0--0-0----------------------
0-0--0-0--0-0--0-0-----0-0--0-0--0-0--0-0----------------------

Pod koniec 3 zwrotki :
---------------------------------------------------------------
---------------------------------------------------------------
---------------------------------------------------------------
---------------------------------------------------------------
--0-2-3--0-2-3--0-2-3--0-2-3--0-2-3--0-2-3--0-2-3--0-2-3--0-2-3
--0-2-3--0-2-3--0-2-3--0-2-3--0-2-3--0-2-3--0-2-3--0-2-3--0-2-3

,,Czas...już czas" tak samo jak zwrotka

Dodaj komentarz ...i/lub link do filmiku video

Zaloguj się do serwisu
Ostatnie komentarze
1.
laurens47
2013-08-16 15:34
Link do wersji Guitar Pro: http://www.911tabs.com/link/?3358486
2.
sebasti666
2012-04-24 19:20
Jest to w stroju Dropped C (DAFCGC) i chciałbym jeszcze napomsknąć że w intro powinno się używać wajchy jak by co ale to raczej wszyscy słyszą ;)
3.
-=Mrugaczek=- PL
2009-08-18 22:10
Ktoś mi może powiedzieć na jakim strojeniu to jest ?
Wszelkie materiały i wypowiedzi zamieszczone na www.chords.pl są własnością ich autorów.