Zacznij systematycznie uczyć się grać na gitarze razem ze stroną Moja nauka - będziesz miał/miała do niej dostęp po zalogowaniu się w serwisie

Krzyk Kamieni - Hunter

Opracował -a: Morgred aep Morgahad vel Maugrim,
Dodał -a: Morgred aep Morgahad vel Maugrim,
Redaktor: Seba,
Data publikacji: 2012-02-27 10:48
 
Moja nauka


Ups, problem :-/
Zaloguj się Mój śpiewnik
D----------------------------
A----------------------------
F---------------------------- RIFF I
C-------5-7-5---7--5--------8
G-----5-------5------5--5-6--
C--0-------------------------

D-----------------
A-----------------
F-----------------  RIFF II
C--8-------10--7--
G--6-------8 --5--
C-----------------

D-----------------------------
A-----------------------------
F----------------------------- RIFF III
C--------5-7-5---7--5--------8
G--/5--5-------5------5--5-6--
C--/5-------------------------


D-----------------------------------------------------------
A-----------------------------------------------------------
F----------------------------------------------------------- RIFF IV
C--1-1--1-1----1----0--7----1--3-1-0--7----1----x--1--0--7--
G--1-1--1-1----1----0--5----1--3-1-0--5----1----x--1--0--5--
C--1-1--1-1----1----0-------1--3-1-0-------1----x--1--0-----

D------------------
A------------------
F------------------ OUTRO
C--1--0----1--1---0
G--1--0----1--1---0
C--1--0----1--1---0

Kolejność:

RIFF I
RIFF II
RIFF III
RIFF I
RIFF II
RIFF III
RIFF IV
RIFF III
RIFF I
RIFF II
RIFF III
OUTRO

Dodaj komentarz ...i/lub link do filmiku video

Zaloguj się do serwisu
Wszelkie materiały i wypowiedzi zamieszczone na www.chords.pl są własnością ich autorów.