Zacznij systematycznie uczyć się grać na gitarze razem ze stroną Moja nauka - będziesz miał/miała do niej dostęp po zalogowaniu się w serwisie

Strasznik - Hunter

Opracował -a: petlica,
Dodał -a: petlica,
Redaktor: petlica,
Pochodzi z: http://www.chords.pl
Data publikacji: 2011-05-17 09:17, Poprawiono 2011-05-18 08:11
 
Moja nauka


Ups, problem :-/
Zaloguj się Mój śpiewnik
Jeszcze nie do końca pełne opracowanie, będzie jeszcze druga gitara i małe zmiany.
Kilku rzeczy nie jestem pewien ale wrzucam co mam, będzie update

CGCFAD - czyli tzw. Dropped C Tunning

Intro

 Guitar_1
|----------------------------------|-----------------------------|
|----------------------------------|-----------------------------|
|----------------------------------|-----------------------------|
|------------------------------3/2-|-0-0--0--0---0-0--0--0--0----|
|------8-7~----7-5~----5-3~----3/2-|-0-0--0--0---0-0--0--0--0-\--|
|--0-7-------7-------7-------0-3/2-|-0-0--0--0---0-0--0--0--0-\--|
|  pm.      pm      pm      pm     |                             |
|                                  |                             |
|Guitar_2                          |                             |
|----------------------------------|-----------------------------|
|----------------------------------|-----------------------------|
|----------------------------------|-----------------------------|
|--0---0-2---0-2-3---0-3-2---0-3/2-|-0-0--0--0---0-0--0--0--0-\--|
|--0---0-2---0-2-3---0-3-2---0-3/2-|-0-0--0--0---0-0--0--0--0-\--|
|--0---0-2---0-2-3---0-3-2---0-3/2-|-0-0--0--0---0-0--0--0--0-\--|
      pm    pm..    pm..    pm      



 Guitar_1
|----------------------------------|-----------------------------|
|----------------------------------|-----------------------------|
|----------------------------------|-----------------------------|
|------------------------------3/2-|-0-0--0--0---0-0--0--0-0-2/3-|
|------8-7~----7-5~----5-3~----3/2-|-0-0--0--0---0-0--0--0-0-2/3-|
|--0-7-------7-------7-------0-3/2-|-0-0--0--0---0-0--0--0-0-2/3-|
|  pm.      pm      pm      pm     |                      pm     |
|                                  |                             |
|Guitar_2                          |                             |
|----------------------------------|-----------------------------|
|----------------------------------|-----------------------------|
|----------------------------------|-----------------------------|
|--0---0-2---0-2-3---0-3-2---0-3/2-|-0-0--0--0---0-0--0--0-0-2/3-|
|--0---0-2---0-2-3---0-3-2---0-3/2-|-0-0--0--0---0-0--0--0-0-2/3-|
|--0---0-2---0-2-3---0-3-2---0-3/2-|-0-0--0--0---0-0--0--0-0-2/3-|
      pm    pm..    pm..    pm                            pm



 Guitar_1&2
|----------------------------------|---------------------------------|
|----------------------------------|---------------------------------|
|----------------------------------|---------------------------------|
|------8-7-----7-5-----5-3---2-3-2-|------8-7-----7-3---5-5----1---1-|
|------8-7-----7-5-----5-3---2-3-2-|------8-7-----7-3---5-5----1---1-|
|--0-3-8-7---0-7-5---0-5-3---2-3-2-|--0-3-8-7~--0-7-3---5-5----1---1-|
  pm..      pm      pm       pm...   pm..      pm



Guitar_1
|----------------------------------|-----------------------------|
|----------------------------------|-----------------------------|
|----------------------------------|-----------------------------|
|------------------------------3/2-|-0-0--0--0---0-0--0--0-3-2---|
|------8-7~----7-5~----5-3~----3/2-|-0-0--0--0---0-0--0--0-1-0-3-|
|--0-7-------7-------7-------0-3/2-|-0-0--0--0---0-0--0--0-----3-|
|  pm.      pm      pm      pm     |                      pm.... |
|                                  |                             |
|Guitar_2                          |                             |
|----------------------------------|-----------------------------|
|----------------------------------|-----------------------------|
|----------------------------------|-----------------------------|
|--0---0-2---0-2-3---0-3-2---0-3/2-|-0-0--0--0---0-0--0--0-3-2---|
|--0---0-2---0-2-3---0-3-2---0-3/2-|-0-0--0--0---0-0--0--0-1-0-3-|
|--0---0-2---0-2-3---0-3-2---0-3/2-|-0-0--0--0---0-0--0--0-----3-|
      pm    pm..    pm..    pm                            pm....



Verse 1st & 2nd

|----------------------------------|----------------------------------|
|----------------------------------|----------------------------------|
|----------------------------------|----------------------------------|
|-0---0-2---0-2-3---0-3-2---0-3/2--|-0---0-2---0-2-3---0-3-2---2-3-2--|
|-0---0-2---0-2-3---0-3-2---0-3/2--|-0---0-2---0-2-3---0-3-2---2-3-2--|
|-0---0-2---0-2-3---0-3-2---0-3/2--|-0---0-2---0-2-3---0-3-2---2-3-2--|
     pm    pm..    pm..    pm           pm     pm.    pm..     pm...


|----------------------------------|----------------------------------|
|----------------------------------|----------------------------------|
|----------------------------------|----------------------------------|
|-0---0-2---0-2-3---0-3-2---0-3/2--|-0---0-2---0-2-3---2-3-5----------|
|-0---0-2---0-2-3---0-3-2---0-3/2--|-0---0-2---0-2-3---2-3-5----------|
|-0---0-2---0-2-3---0-3-2---0-3/2--|-0---0-2---0-2-3---2-3-5----------|
     pm    pm..    pm..    pm           pm     pm.     pm...



Ref 1st

|-----------------------------|-----------------------------|
|-----------------------------|-----------------------------|
|----3-2----------------------|----3-2----------------------|
|-0--3-2------5---------------|-0--3-2------5---------------|
|-0--1-0----3-5---5-5-5-5-5-5-|-0--1-0----3-5---5-5-5-5-5-3-|
|-0-------0-3-5---5-5-5-5-5-5-|-0-------0-3-5---5-5-5-5-5-3-|
         p...     pm.........           pm.     pm.........


|-----------------------------|----------------------------------|
|-----------------------------|----------------------------------|
|----3-2--------------5---2---|----------------------------------|
|-0--3-2------5-------5---2---|-0---0-2---0-2-3---2-3-5----------|
|-0--1-0----3-5---5-5-3---0---|-0---0-2---0-2-3---2-3-5----------|
|-0-------0-3-5---5-5---------|-0---0-2---0-2-3---2-3-5----------|
         pm..     pm.              pm    pm..     pm...


Ref 2nd 

|-----------------------------|-----------------------------|
|-----------------------------|-----------------------------|
|----3-2----------------------|----3-2----------------------|
|-0--3-2------5---------------|-0--3-2------5---------------|
|-0--1-0----3-5---5-5-5-5-5-5-|-0--1-0----3-5---5-5-5-5-5-3-|
|-0-------0-3-5---5-5-5-5-5-5-|-0-------0-3-5---5-5-5-5-5-3-|
         p...     pm.........           pm.     pm.........


|-----------------------------|----------------------------------|
|-----------------------------|----------------------------------|
|----3-2--------------5---2---|----------------------------------|
|-0--3-2------5-------5---2---|-0---0-2---0-2-3---0-3-2---2-3-2--|
|-0--1-0----3-5---5-5-3---0---|-0---0-2---0-2-3---0-3-2---2-3-2--|
|-0-------0-3-5---5-5---------|-0---0-2---0-2-3---0-3-2---2-3-2--|
         pm..     pm.          


|-----------------------------|-----------------------------|
|-----------------------------|-----------------------------|
|----3-2----------------------|----3-2----------------------|
|-0--3-2------5---------------|-0--3-2------5---------------|
|-0--1-0----3-5---5-5-5-5-5-5-|-0--1-0----3-5---5-5-5-5-5-3-|
|-0-------0-3-5---5-5-5-5-5-5-|-0-------0-3-5---5-5-5-5-5-3-|
         p...     pm.........           pm.     pm.........


|-----------------------------|-----------------------------|
|-----------------------------|-----------------------------|
|----3-2--------------5---2---|----------------------3---2--|
|-0--3-2------5-------5---2---|-0--------------------3---2--|
|-0--1-0----3-5---5-5-3---0---|-0--------------------1---0--|
|-0-------0-3-5---5-5---------|-0---------------------------|
         pm..     pm.                 


|-----------------------------|-----------------------------|
|-----------------------------|-----------------------------|
|---------------------3---2---|----------------------3---2--|
|-0-------------------3---2---|-0--------------------3---2--|
|-0-------------------1---0---|-0--------------------1---0--|
|-0---------------------------|-0---------------------------|


|-----------------------------|-----------------------------|
|-----------------------------|-----------------------------|
|-----------------------------|-----------------------------|
|-0---------------------------|-(0)-------------------------|
|-0---------------------------|-(0)-------------------------|
|-0---------------------------|-(0)-------------------------|
                                                
Bridge
                             x3
|------------------------------|----------------------------|
|------------------------------|----------------------------|
|------------------------------|----------------------------|
|-----0-3------2------1------1-|------0------0------0-------|
|---0------3------2------1-----|----1------1------1---------|
|-0----------3------2------1---|-0-------0------0-----------|


                             x3
|------------------------------|----------------------------|
|------------------------------|----------------------------|
|------------------------------|----------------------------|
|-----0-3------2------1------1-|------0------0----0-0-0-0-0-|
|---0------3------2------1-----|----1------1------1-1-1-1-1-|
|-0----------3------2------1---|-0-------0--------0-0-0-0-0-|
                                                  pm.......

Verse 3rd

|----------------------------------|-----------------------------------|
|----------------------------------|-----------------------------------|
|----------------------------------|-----------------------------------|
|-0---0-2---0-2-3---0-3-2---0-3/2--|-----------------------------------|
|-0---0-2---0-2-3---0-3-2---0-3/2--|------8-7~----7-5~----5-3~----3/5--|
|-0---0-2---0-2-3---0-3-2---0-3/2--|--0-7-------7-------7-------0------|
     pm     pm.    pm      pm        pm..      pm      pm      pm


|----------------------------------|-----------------------------------------------|
|----------------------------------|-----------------------------------------------|
|----------------------------------|-----------------------------------------------|
|-0---0-2---0-2-3---0-3-2---0-3/2--|-----------------------------------------------|
|-0---0-2---0-2-3---0-3-2---0-3/2--|------8-7(8)tr----7-5(7)tr----5-3(5)tr----3/5--|
|-0---0-2---0-2-3---0-3-2---0-3/2--|--0-7----------7-----------7------------0------|
     pm     pm.    pm      pm        pm..         pm          pm           pm


|----------------------------------|---------------------------------|
|----------------------------------|---------------------------------|
|----------------------------------|---------------------------------|
|------8-7-----7-5-----5-3---2-3-2-|------8-7-----7-3---5-5----1---1-|
|------8-7-----7-5-----5-3---2-3-2-|------8-7-----7-3---5-5----1---1-|
|--0-3-8-7---0-7-5---0-5-3---2-3-2-|--0-3-8-7~--0-7-3---5-5----1---1-|
  pm..      pm      pm       pm...   pm..      pm


|----------------------------------|----------------------------------|
|----------------------------------|----------------------------------|
|----------------------------------|------------------10-9-8-7--------|
|-0---0-2---0-2-3---0-3-2---0-3/2--|-0---0-2---0-2-3--10-9-8-7--5-3-2-|
|-0---0-2---0-2-3---0-3-2---0-3/2--|-0---0-2---0-2-3------------5-3-2-|
|-0---0-2---0-2-3---0-3-2---0-3/2--|-0---0-2---0-2-3------------5-3-2-|
     pm    pm..    pm..    pm           pm     pm.              pm...


Ref 3rd

|-----------------------------|-----------------------------|
|-----------------------------|-----------------------------|
|----3-2----------------------|----3-2----------------------|
|-0--3-2------5---------------|-0--3-2------5---------------|
|-0--1-0----3-5---5-5-5-5-5-5-|-0--1-0----3-5---5-5-5-5-5-3-|
|-0-------0-3-5---5-5-5-5-5-5-|-0-------0-3-5---5-5-5-5-5-3-|
         p...     pm.........           pm.     pm.........


|-----------------------------|----------------------------------|
|-----------------------------|----------------------------------|
|----3-2--------------5---2---|----------------------------------|
|-0--3-2------5-------5---2---|-0---0-2---0-2-3---0-3-2---2-3-2--|
|-0--1-0----3-5---5-5-3---0---|-0---0-2---0-2-3---0-3-2---2-3-2--|
|-0-------0-3-5---5-5---------|-0---0-2---0-2-3---0-3-2---2-3-2--|
         pm..     pm.          


|-----------------------------|-----------------------------|
|-----------------------------|-----------------------------|
|----3-2----------------------|----3-2----------------------|
|-0--3-2------5---------------|-0--3-2------5---------------|
|-0--1-0----3-5---5-5-5-5-5-5-|-0--1-0----3-5---5-5-5-5-5-3-|
|-0-------0-3-5---5-5-5-5-5-5-|-0-------0-3-5---5-5-5-5-5-3-|
         p...     pm.........           pm.     pm.........


|-----------------------------|--------0--------------------|
|-----------------------------|----------3------------------|
|----3-2--------------5---2---|------------2---------3---2--|
|-0--3-2------5-------5---2---|-0------------0-------3---2--|
|-0--1-0----3-5---5-5-3---0---|-0--------------------1---0--|
|-0-------0-3-5---5-5---------|-0---------------------------|
         pm..     pm.                 


|-------0---------------------|--------0--------------------|
|---------3-------------------|----------3------------------|
|-----------2---------3---2---|------------2---------3---2--|
|-0-----------0-------3---2---|-0------------0-------3---2--|
|-0-------------------1---0---|-0--------------------1---0--|
|-0---------------------------|-0---------------------------|


|-------0---------------------|-----------------------------|
|---------3-------------------|-----------------------------|
|-----------2---------3---3---|-----------------------------|
|-0-----------0-------3---3---|-----------------------------|
|-0-------------------1---1---|-----------------------------|
|-0---------------------------|-----------------------------|


Pozdr
petlica

Dodaj komentarz ...i/lub link do filmiku video

Zaloguj się do serwisu
Ostatnie komentarze
1.
Morgred aep Morgahad vel Maugrim
2011-06-12 00:26
super mistrzu a dałbys rade rozpisać arges ?
2.
petlica
2011-05-17 13:11
Szukanie stroju - trochę tak na wyczucie. Najczęściej do najniższego granego dźwięku lub do pustych strun. Riffy grane X-droppach też w pewien charakterystyczny sposób brzmią. Szczerze mówiąc nie wiem jak to rozsądnie wytłumaczyć.
3.
rybazmarsa88
2011-05-17 12:47
super nigdy nie mogłem wyczaić jak to idzie:)) słuchaj po czym poznajesz jaki strój jest używany? przestrajasz np do D i wtedy sprawdzasz jak brzmi i jak coś to stroj niżej? czy masz jakiś sposób? dobra robota:) czekam na więcej kawałków Huntera przez Ciebie rozczytane:)
Wszelkie materiały i wypowiedzi zamieszczone na www.chords.pl są własnością ich autorów.