Zacznij systematycznie uczyć się grać na gitarze razem ze stroną Moja nauka - będziesz miał/miała do niej dostęp po zalogowaniu się w serwisie

BiałoCzerw - Hunter

Opracował -a: lllukasz111,
Dodał -a: lllukasz111,
Redaktor: Seba,
Pochodzi z: http://www.chords.pl/
Data publikacji: 2013-01-25 16:01
 
Moja nauka


Ups, problem :-/
Zaloguj się Mój śpiewnik
D----------------
A-----3----------
F-----2----------
C----------------
G-0-0----0-0-----
C-0-0----0-0-----

D-----------------
A-----------------
F-----------------
C-----------------
G-2-2-22-2-/3-33\2
C-2-2-22-2-/3-33\2

D----------------------
A----------------------
F----------------------
C-7--8--7--8--7--8--7--
G-7--8--7--8--7--8--7--
C-7--8--7--8--7--8--7--

D-------------------------------|----------------------
A-------------------------------|----------------------
F-------------------------------|----------------------
C-------------------------------|-10-------------------
G-0--0--------0--0--0--------0--|-10--1010--10/88--8\77
C-0--0-2b(3)2-0--0--0-2b(3)2-0--|-10--1010--10/88--8\77
Dodał: glaniarz, 2013-01-31 20:24
Opracowania video z komentarzy

Dodaj komentarz ...i/lub link do filmiku video

Zaloguj się do serwisu
Ostatnie komentarze
1.
lllukasz111
2013-02-04 19:03
spoko :P dzięki
2.
petlica
2013-01-30 08:22
Pozwoliłem sobie dopisać mały fragment którego brakowało Pozdr
Wszelkie materiały i wypowiedzi zamieszczone na www.chords.pl są własnością ich autorów.