Zacznij systematycznie uczyć się grać na gitarze razem ze stroną Moja nauka - będziesz miał/miała do niej dostęp po zalogowaniu się w serwisie

PSI (tab) - Hunter

Opracował -a: petlica,
Dodał -a: petlica,
Redaktor: petlica,
Pochodzi z: http://www.chords.pl/
Data publikacji: 2013-01-22 08:35
 
Moja nauka


Ups, problem :-/
Zaloguj się Mój śpiewnik
drop-C


Ilością uderzeń raczej się proszę nie sugerować, zapisane orientacyjnie.

Riff A
D|-------------------------|------------------------|
A|-------------------------|------------------------|
F|-------------------------|------------------------|
D|-8--8-8-8-7--7-7-7-7-7-7-|-7h8-8-8-8--8---8-8-8-8-|
G|-5--5-5-5-5--5-5-5-5-5-5-|-5---5-5-5--5h6-6-6-6-6-|
C|-5--5-5-5-5--5-5-5-5-5-5-|-5---5-5-5--5---5-5-5-5-|

                                                       x4
D|----------------------------|--------------------------|
A|----------------------------|--------------------------|
F|----------------------------|-10-10-10-10--8--8-8-8-8--|
D|-8/10-10-10-10--10-10-10-10-|--x--x--x--x--x--x-x-x-x--|
G|-6/8--8---8--8---8--8--8--8-|--8--8--8--8--8--8-8-8-8--|
C|-5/7--7---7--7---7--7--7--7-|--0--0--0--0--0--0-0-0-0--|

                                            x2    1.....................
D|---------------------|------------------------||----------------------|
A|---------------------|------------------------||----------------------|
F|---------------------|------------------------||----------11/12\11----|
D|-5--5--5-7--8--8--8--|-13--13--13-8--7--7--7--||-3--3------x----------|
G|-1--1--1-3--5--5--5--|-10--10--10-5--3--3--3--||-1--1--0---9/10\9-----|
C|-1--1--1-3--5--5--5--|-10--10--10-5--3--3--3--||-1--1--0--------------|


 2........................................................
D|-------------------|------------------|-----------------|
A|-------------------|------------------|-----------------|
F|-------------------|------------------|-----------------|
D|-1--1--1--3--3--3--|-5--5--5--5--5--5-|-1--1--1--0------|
G|-1--1--1--3--3--3--|-5--5--5--3--5--5-|-1--1--1--0------|
C|-1--1--1--3--3--3--|-5--5--5--3--5--5-|-1--1--1--0------|


  Riff B
D|---------------------------------|---------------------------------|
A|---------------------------------|---------------------------------|
F|-----------------------3/5-5-5-5-|-----------------------7/8-8-8-8-|
D|-8--7----5--3----3--5--x---x-x-x-|-8--7----5--3----3--5--x---x-x-x-|
G|-5--5----3--3----1--1--1/3-3-3-3-|-5--5----3--3----1--1--5/6-6-6-6-|
C|-5--5----3--3----1--1------------|-5--5----3--3----1--1------------|

  Riff C
D|----------------------------------------------|
A|----------------------------------------------|
F|----------------------------------------------|
D|----------------------------------------------|
G|----------------------------------------------|
C|-3p0-0-0-0--3p0-0-0-0--3p0-0-0-0--6-6-6-6-6-6-|


D|----------------------------------------------|
A|----------------------------------------------|
F|----------------------------------------------|
D|----------------------------------------------|
G|----------------------------------------------|
C|-3p0-0-0-0--3p0-0-0-0--3p0-0-0-0--6-----------|



D|----------------------------------------------|
A|----------------------------------------------|
F|----------------------------------------------|
D|----------------------------------------------|
G|----------------------------------------------|
C|-3p0-0-0-0--3p0-0-0-0--3p0-0-0-0--6-6-6-6-6-6-|

D|----------------------------------------------|
A|----------------------------------------------|
F|----------------------------------------------|
D|----------------------------------------------|
G|----------------------------------------------|
C|-3p0-0-0-0--3p0-0-0-0--3p0-0-0-0--8-8-8-6-6-6-|

  Riff D                                    x3
D|-------------------|------------------|-----------------|
A|-------------------|------------------|-----------------|
F|-------------------|------------------|-----------------|
D|-1--1--1--3--3--3--|-5--5--5--5--5--5-|-1--1--1--0------|
G|-1--1--1--3--3--3--|-5--5--5--3--5--5-|-1--1--1--0------|
C|-1--1--1--3--3--3--|-5--5--5--3--5--5-|-1--1--1--0------|



pozdr
petlica

Dodaj komentarz ...i/lub link do filmiku video

Zaloguj się do serwisu
Wszelkie materiały i wypowiedzi zamieszczone na www.chords.pl są własnością ich autorów.